Twitter do SuperGospel Facebook do SuperGospel

Matérias em destaque



Não temas (Tablatura de guitarra / violão)
Oficina G3


Guitarra Base

Obs. Essa Tablatura é a musica inteira, somente da Guitarra Base.


Introdução

e|--------------------------------------------------------|
B|--------------------------------------------------------|
G|--------------------------------------------------------|
D|--------------------------------------------------------|
A|--9--9---------7--7---------9--9---------7--7-----------|
E|--6--7---------4--5---------6--7---------4--5-----------|

e|--------------------------------------------------------|
B|--------------------------------------------------------|
G|--------------------------------------------------------|
D|-------------------4------------------------------------|
A|-----------5-6-7-8---8-7-6-5-----------9--9------7--7---|
E|---4-5-6-7-------------------7-6-5-----6--7------4--5---|

e|--------------------------------------------------------|
B|--------------------------------------------------------|
G|--------------------------------------------------------|
D|-------------------4------------------------------------|
A|-----------5-6-7-8---8-7-6-5----------------------------|
E|---4-5-6-7-------------------7-6-5----------------------|

e|--------------------------------------------------------|
B|--------------------------------------------------------|
G|--------------------------------------------------------|
D|--------------------------------------------------------|
A|---9--9-------7--7-------9------11-----9--9-----11---11-|
E|---6--7-------4--5-------7-------9-----7--7------9----9-|

Lutar ou Fugir ...

e|--------------------------------------------------------|
B|--------------------------------------------------------|
G|--------------------------------------------------------|
D|-----------9--9-----------------------------------------|
A|--7---9----7--7----11-----7--9--------------------------|
E|--5---7-------------9-----5--7--------------------------|

e|--------------------------------------------------------|
B|--------------------------------------------------------|
G|--------------------------------------------------------|
D|--------------------------------------------------------|
A|---7-7-7-7--9-9-9-9--6-6-6-6--7-7-7-7----9--------------|
E|---5-5-5-5--7-7-7-7--4-4-4-4--5-5-5-5----7--------------|

Não Temas ...


e|--------------------------------------------------------|
B|--------------------------------------------------------|
G|--------------------------------------------------------|
D|--------------------------------------------------------|
A|-7--------9------9----11--------------------------------|
E|-5--------7------8-----9--------------------------------|

Não se esqueça da promessa ...

e|--------------------------------------------------------|
B|--------------------------------------------------------|
G|--------------------------------------------------------|
D|--------------------------------------------------------|
A|-9--9--------7--7-------9--9--------7--7----------------|
E|-6--7--------4--5-------6--7--------4--5----------------|

Não Temas...     

e|--------------------------------------------------------|
B|--------------------------------------------------------|
G|--------------------------------------------------------|
D|--------------------------------------------------------|
A|-9--9--------7--7-------9--9--------7--7----------------|
E|-6--7--------4--5-------6--7--------4--5----------------|

Não Temas...

Base Solo

e|--------------------------------------------------------|
B|--------------------------------------------------------|
G|--------------------------------------------------------|
D|--------------------------------------------------------|
A|-44444444---99999999---77777777-------------------------|
E|----------------------------------77777777--------------|

2	Vezes

e|--------------------------------------------------------|
B|--------------------------------------------------------|
G|--------------------------------------------------------|
D|--------------------------------------------------------|
A|---7-7-7-7-7-7-7-7-7--------9-9-9-9-9-9-9-9-9-----------|
E|---5-5-5-5-5-5-5-5-5--------7-7-7-7-7-7-7-7-7-----------|

e|--------------------------------------------------------|
B|--------------------------------------------------------|
G|--------------------------------------------------------|
D|--------11------11-----------13-------13-----------14---|
A|--------------------------------------------------------|
E|----9-9-----9-9----9---11-11----11-11----11--12-12------|

e|--------------------------------------------------------|
B|--------------------------------------------------------|
G|--------------------------------------------------------|
D|----------14------------16----------11------------------|
A|-------------------------------------------7------------|
E|----12-12----12---14-14----14---9-9----9---5------------|

___________________________________________________________________
Colaboração: wiliam  neves de amorim - wiliann@ucb.br 
    Correção: Walison de Arruda Fernandes - wafjcf@brturbo.com

><> Supergospel.com.br - O portal da música gospel

Também para esta música: Cifra

 RECURSOS    Corrigir música | Versão para impressão | Indicar a um amigo | Compre este CD
Copyright - 2001 - 2018 Supergospel. Todos os direitos reservados.