Twitter do SuperGospel Facebook do SuperGospel

Matérias em destaque



Profecias (Tablatura de guitarra / violão)
Oficina G3


Solo:

E|-----------------------------------------------------10-12-13-| 
B|---------------------------------------------10-12-13---------| 
G|--------------------------------------9-10-12-----------------| 
D|-------------------------------9-10-12------------------------| 
A|---------8-10-12--------8-10-12-------------------------------| 
E|-8-10-12---------8-10-12--------------------------------------| 
                                                                     
E|------------------------12-----------13-----------13--20-20-17-----------| 
B|-13fb--13fb----15p13--------15p13--------15p13-----------------20-20bf~~-| 
G|---------------------14-----------14-----------14------------------------| 
D|-------------------------------------------------------------------------| 
A|-------------------------------------------------------------------------| 
E|-------------------------------------------------------------------------| 
                                                                                                 
E|-18-17-15----------------------------------------------------------------------------------| 
B|----------18-17-15-------------------------------------------------------------------------| 
G|-------------------15-14-12-------------------------------------------------------12-14-15-| 
D|----------------------------15-14-12-------------------------------------12-14-15----------| 
A|-------------------------------------15-13-12-------------------12-13-15-------------------| 
E|----------------------------------------------15-13-12-12-13-15----------------------------| 
                                                                                                            
E|-------------13-17-15-13----------------------------------15-13-| 
B|-------13-15-------------------------------------------13-------| 
G|-14-15-------------------17-15-14-12-15-14-12----12-14----------| 
D|----------------------------------------------15----------------| 
A|----------------------------------------------------------------| 
E|----------------------------------------------------------------| 
                                                                
E|-------12h15p12----------15h20p15----------17h20p17-------20b---20-18-17---------|| 
B|----13----------13----17----------17----18----------18--------------------20fb~~-|| 
G|-12----------------17----------------17----------------17------------------------|| 
D|---------------------------------------------------------------------------------|| 
A|---------------------------------------------------------------------------------|| 
E|---------------------------------------------------------------------------------||

___________________________________________________________________
Colaboração: Mauricio J. Frigo - frigo.r@terra.com.br 

><> Supergospel.com.br - O portal da música gospel

Também para esta música: Cifra

 RECURSOS    Corrigir música | Versão para impressão | Indicar a um amigo | Compre este CD
Copyright - 2001 - 2018 Supergospel. Todos os direitos reservados.