Twitter do SuperGospel Facebook do SuperGospel

Matérias em destaque



Atitude (Tablatura de guitarra / violão)
Oficina G3


Obs: Esta Música é tocada com o instrumento afinado um tom abaixo do normal.

Intro


                 Gm  Bb   C              Gm  D  Dbm C
d -------------------------------------------------------------------
A -------------------------------------------------------------------
F -------------------------------------------------------------------
C -------------------5-5--7------------------9--8--7-----------------
G ----------------7--3-3--5---------------7--7--6--5-----------------
D -0-2-0-3-0-4-5--5--------0-2-0-3-0-4-5--5--------------------------
                                      

                 Gm  Bb   C              Gm  D  Dbm C  D 
d -------------------------------------------------------------------
A -------------------------------------------------------------------
F -------------------------------------------------------------------
C -------------------5-5--7------------------9--8--7---9-------------
G ----------------7--3-3--5---------------7--7--6--5---7-------------
D -0-2-0-3-0-4-5--5--------0-2-0-3-0-4-5--5--------------------------
                                      
RIFF DA MÚSICA

    Bb      F      Gm       C          Bb       F       Gm      C
d -------------------------------------------------------------------
A -------------------------------------------------------------------
F -------------------------------------------------------------7-----
C -5-5---------------------7-7---------5-5---------------------5-----
G -3-3-----5-5-----7-7-----5-5--0-2-0--3-3-----5-5-----7-7-----------
D ---------3-3-----5-5-------------------------3-3-----5-5-----------
 

    Bb      F      Gm       C          Bb       F       Gm      C
d -------------------------------------------------------------------
A -------------------------------------------------------------------
F -------------------------------------------------------------7-----
C -5-5---------------------7-7---------5-5---------------------5-----
G -3-3-----5-5-----7-7-----5-5--0-2-0--3-3-----5-5-----7-7-----------
D ---------3-3-----5-5-------------------------3-3-----5-5-----------


          Bb       F      Gm        C       Dm     Bb    C
d -------------------------------------------------------------------
A -------------------------------------------------------------------
F ---------------------------------7-7-------------------------------
C --------5-5----------------------5-5-------------------7-----------
G -0-2-0--3-3-----5-5-----7-7----------------2-----5-----5-----------
D ----------------3-3-----5-5----------------0-----3-----------------
   ...Portas fechadas...                    ...Tentativa sem sucesso


REFRÃO
                 Gm     Bb   C                Gm     D  Dbm C
d -------------------------------------------------------------------
A -------------------------------------------------------------------
F -------------------------------------------------------------------
C ----------------------5-5--7-----------------------9--8--7------------
G ----------------7-----3-3--5-----------------7-----7--6--5------------
D -0-2-0-3-0-4-5--5-------------0-2-0-3-0-4-5--5---------------------
                  Abra os olhos...          ...Onde você quer...
                 Gm  Bb   C              Gm  D  Dbm C
d -------------------------------------------------------------------
A -------------------------------------------------------------------
F -------------------------------------------------------------------
C -------------------5-5--7------------------9--8--7-----------------
G ----------------7--3-3--5---------------7--7--6--5-----------------
D -0-2-0-3-0-4-5--5--------0-2-0-3-0-4-5--5--------------------------

                                      
*A música ainda está incompleta, faltam alguns detalhes que eu conserto 
quando acessar novamente a internet...


Bb                   F                                
Caminhos escuros vida em preto e branco 
Gm          C
sem saber onde chegar 
Bb         F        Gm      C 
Pois está tudo fora do lugar 



   Bb           F           Gm              C 
A busca da certeza que você não encontrou 
Bb     F              Gm   C
pelas suas próprias mãos

  Bb                 F                     
Portas fechadas janelas trancadas   
Gm                    C
sem saber pra onde ir

Dm    F               C 
Tentativas sem sucesso 



Gm         Bb    C 
Abra os olhos   
              Gm       Dm      Dbm           C
Existe vida eterna    aonde você quer chegar? 

   Bb                  F
A busca da certeza...

___________________________________________________________________
Colaboração: Jonatas de Souza lemos  - gohas@globo.com 
    Correção: Raniel Xavier da Cunha Bezerra - rxcb@bol.com.br
Correção: Luiz Felipe Vianna de Lima - luizao-guitar@bol.com.br

><> Supergospel.com.br - O portal da música gospel

Também para esta música: Cifra

 RECURSOS    Corrigir música | Versão para impressão | Indicar a um amigo | Compre este CD
Copyright - 2001 - 2018 Supergospel. Todos os direitos reservados.