Twitter do SuperGospel Facebook do SuperGospel

Matérias em destaque



Ingratidão (Tablatura de baixo)
Oficina G3


Peço força...
F||-------------------------------------------------------||
C||------5-5----------------5-5---------------------------||
G||--5-7------5-7------5-7-----5-7------5-7-5-7-5-7-7-7---|| h=Hold
D||---------------3-0h-------------3-0h-------------------||

Introdução
F||--------------------------------------------|
C||-----------5------------------3\5-3---------| \=slide para frente
G||---7-7-5-7---7-5-7----7-7-5-7-------7-5-7---|
D||--------------------------------------------|

 F|-----------------------------------------------||
 C|---------5-----------------------7_8-7---7-----||
 G|-7-7-5-7---7-5-7----------------------9----9---|| ...Peço força...
 D|-------------------3-3--3-3-4-5----------------||

de onde me vem.....

F||----------------------------------------------------|
C||------------------7-6-------------------7-6-7-7/9---|
G||--5_7-5-5-5-5-7-7-----7-5-7-5-5-5-5-7-7-------------|
D||----------------------------------------------------|

   Refrão 
      A#         G      D    
 Seus braços abertos ignora minha ingratidão 
   A#          G        D  
 agora estou pronto a ouvir

      A#         G      D    
 Seus braços abertos ignora minha ingratidão 
   A#        B          C  C# D
 agora estou pronto a ouv----ir

F||--------------------------------------------|
C||-----------5------------------3\5-3---------| 
G||---7-7-5-7---7-5-7----7-7-5-7-------7-5-7---|
D||--------------------------------------------|

F|-----------------------------------------------||
C|---------5-----------------------7_8-7---7-----||
G|-7-7-5-7---7-5-7----------------------9----9---||
D|-------------------3-3--3-3-4-5----------------||

___________________________________________________________________
Colaboração: Evandro Ferreira Daniel - cabuloso_baixo@msn.com 
    Correção: Valdeir Nunes Silva - vnsilva78@yahoo.com.br
Correção: Maurino.B.chusczak - maurinocondor@hotmail.com
Correção: Paulo Romas Godinho - paulo_zoom@yahoo.com.br

><> Supergospel.com.br - O portal da música gospel

Também para esta música: Cifra | Tablatura de guitarra

 RECURSOS    Corrigir música | Versão para impressão | Indicar a um amigo | Compre este CD
Copyright - 2001 - 2018 Supergospel. Todos os direitos reservados.