Twitter do SuperGospel Facebook do SuperGospel

Matérias em destaque



Ingratidão (Tablatura de guitarra / violão)
Oficina G3


Solo:

(2:52)


     G                                                                                     
  8va---------------------------------------------------------------------------------                  

E|-7-----9p7---10p7--15p10---10--12p10-15p10-|-7-----9p7---10p7-15p10----12p10--15p10-|
B|---8-------8-------------12----------------|---8-------8------------12--------------|
G|-----7-------------------------------------|-----7----------------------------------|
D|-------------------------------------------|----------------------------------------|
A|-------------------------------------------|----------------------------------------|
E|-------------------------------------------|----------------------------------------|

   A                                                                                       Bb                                                   
----------------------------------------------------------------------------------------------

                                                  (2:57)                                  
                                                                                            
E|-9------10p9----12p9-17p12----12-14p12-17p12-|-9------10p9----12p9-17p12----12-14p12-10----|
B|---10--------10------------14----------------|---10--------10------------14-------------11-|
G|------9--------------------------------------|------9--------------------------------------|
D|---------------------------------------------|---------------------------------------------|
A|---------------------------------------------|---------------------------------------------|
E|---------------------------------------------|---------------------------------------------|

                                                 C                        A/C#                    
----------------------------------------------------------------------------------------------


E|----12p10----13p10----13p10-12p10-----10-13-12----|----13p12----15p12-18p15--------15p12---------||
B|----------11-------11-------------11-----------13-|----------13-------------17-----------13------||
G|-10-----------------------------------------------|-12-------------------------17-----------15--*||
D|--------------------------------------------------|---------------------------------------------*||
A|--------------------------------------------------|----------------------------------------------||
E|--------------------------------------------------|----------------------------------------------||

___________________________________________________________________
Colaboração: Mauricio J. Frigo - frigo.r@terra.com.br 

><> Supergospel.com.br - O portal da música gospel

Também para esta música: Cifra | Tablatura de baixo

 RECURSOS    Corrigir música | Versão para impressão | Indicar a um amigo | Compre este CD
Copyright - 2001 - 2018 Supergospel. Todos os direitos reservados.