Twitter do SuperGospel Facebook do SuperGospel

Matérias em destaque



Necessário (Tablatura de guitarra / violão)
Oficina G3


Bom galera. Ficou bem legal. Agora é só treinar!!!
DEUS É O AUTOR DA VIDA!!! 

[] » Elevar com o dedo da mão esquerda a nota anterior até alcançar a nota que a chave pede.
 ^ » Slide (escorregar o dedo sobre a corda até alcançar a próxima nota).
 * » arrastar a corda para baixo até que ela alcance 1 tom a mais.

Solo Juninho Afram...

e|-12--------------------------|---------------------------------------|------------------------------------------------------|
B|----12-----------------11----|---------------------------------------|----------------14------------------------------------|
G|--------11[13]-11^9----11--9-|-------------9-11-11-9--11[13]--11[13]-|-13-14-15-16-17----17-16-15-14-13---------------------|
D|--------------------11-------|-------9-11----------------------------|----------------------------------15--14-13-14-15-15--|
A|-----------------------------|-9-11----------------------------------|------------------------------------------------------|
E|-----------------------------|---------------------------------------|------------------------------------------------------|


-------------------------------------------|-----------------------------|------------------------------------|
-14-------------12-------------------------|-----------------------------|------------------------------------|
-------------------------------11-12-13-12-|-11-9------------------------|------------------------------------|
----11-12-13-13----13-11-12-13-------------|------11-9-11--11--11^9------|-11-11^9------11^9------14-14^11----|
-------------------------------------------|------------------------11-9-|---------11-9------11-9----------14-|
-------------------------------------------|-----------------------------|------------------------------------|


----------------------------------------|------9------12-9-------------------------------|-------------------------------|
------------------------------9------12-|-9-12---12-9------12-9------12-9----------------|-14[16]--14[16]---16[18]-16^14-|
---------9------9-----11^9-11---11^9----|-----------------------11-9------11-9----11[13]-|-------------------------------|
-11^9------11^9---119-------------------|--------------------------------------11--------|-------------------------------|
------11--------------------------------|------------------------------------------------|-------------------------------|
----------------------------------------|------------------------------------------------|-------------------------------|


---------------------------------------------------|-11-----9-----11-----9-----8---6^2---4---2-----|
----16[18]----16^14----16[19]--16^14-14[16]-14[16]-|---13----11-----13----11------7-------4---2----|
-15-----------------15-----------------------------|-----13----11-----13----11---8-----5---5---3-6-|
---------------------------------------------------|-----------------------------------------------|
---------------------------------------------------|-----------------------------------------------|
---------------------------------------------------|-----------------------------------------------|


------------------15--------13--------10-------------------------------|
-13[15]-13[15]-------13[15]----13[15]----13[15]--13^11-13-11[13]-------|
-----------------------------------------------------------------12-12-|
-----------------------------------------------------------------------|
-----------------------------------------------------------------------|
-----------------------------------------------------------------------|


----------------------------------------------------------------18-18[*Lavancada]-|
----------------------------------------------------------15-18---------------------|
----------------------------------------------14-15-14^17---------------------------|
----------------13^15-------------13-15-13^17---------------------------------------|
----13-15-13^17-------13-15-13^17---------------------------------------------------|
-15*--------------------------------------------------------------------------------|


-18^13----18^13----18^13-18^13----18^13----18^13-|-20^15----20^15----20^15-20^15----20^15----18[20]-|
------------------------------- -----------------|--------------------------------------------------|
-------15-------15-------------15--------15----------|---17-------17-------------17--------17-----------|
-------------------------------------------------|--------------------------------------------------|
-------------------------------------------------|--------------------------------------------------|
-------------------------------------------------|--------------------------------------------------|


-18[22]---18^15----------||
-----------------18[20]--||
-------------------------||
-------------------------||
-------------------------||
-------------------------||

* Lavancada -> Ao tocar a nota anterior, juninho "bate" na lavanca (esta em direção oposta ao cabo) para que o som saia como um ruido, ou seja, tremendo.

___________________________________________________________________
Colaboração: Nielson Rocha - nielsonrocha@hotmail.com 
    Correção: Willians de Lima Cruz - willians_cruz@hotmail.com
Correção: Ulisses Bernardo de Andrade - u-filho@ig.com.br

><> Supergospel.com.br - O portal da música gospel

Também para esta música: Cifra

 RECURSOS    Corrigir música | Versão para impressão | Indicar a um amigo | Compre este CD
Copyright - 2001 - 2018 Supergospel. Todos os direitos reservados.