Twitter do SuperGospel Facebook do SuperGospel

Matérias em destaque



O caminho (Tablatura de guitarra / violão)
Oficina G3


(LEMBRANDO QUE A AFINAÇÃO DA 6ªCORDA ESTÁ EM D          
PORTANTO OS POWERS ACORDES FICAM NA MESMA CASA USANDO O DEDO 1)  

           Lembrando que essa música é um hard rock apesar de Juninho
           Afran ser do meio gospel essa música tem truques do grande 
           guitarrista Jimmy Page do Led zeppelin o uso das pentablues 
           e da afinaçãodo E da 6ª corda para D muito utilizado por 
           Jimmy Page com slides em blues...
  
(RIFF 1)INTRO   
                                             
D|------------------------------|---------------------------------|   
A|--------------------3---------|---------------------------------|   
F|--------------------2---------|--x-x--x-------------------------|   
C|----------------x-x-----------|--x-x--x-----x-x-5--5-3-5>7-7-7--|   
G|------2-0---2---x-x-----------|--x-x--x--2--x-x-3--3-3-3>5-5-5--|   
D|----------3-0-----------------|--x-x--x--0--x-x-----------------|   
  
                             
                                                       H.A   
E|------------------------------------------------------12-|   
B|---------3--------------------------------------------12-|   
G|---------2-----------------------------------------------|   
D|----x-x-------------x-x--5--5-3-5>7-7-7------------------|   
A|-2--x-x----2-0----2-x-x--3--3-3-3>5-5-5--2---------------|   
D|-0-------------3--0-x-x--------|---------0---------------|   
  
  (RIFF 2) VOCAL   
    P.M...........    
  
E|------------------------|------------------------|   
B|------------------------|------------------------|   
G|------------------------|------------------------|   
D|------------------------|------------------------|   
A|--5-3-5---3-5-3-0-------|--0--3-3--0-------------|   
D|------------------------|--0--3-3--0-------------|   
  
    P.M...........   
              
E|------------------------|------------------------|   
B|------------------------|------------------------|   
G|------------------------|------------------------|   
D|------------------------|------------------------|   
A|--5-3-5---3-5-3-0-------|--0--3/5/3--0-----------|   
D|------------------------|--0--3/5/3--0-----------|   
  
E|------------------------|------------------------|   
B|------------------------|------------------------|   
G|------------------------|------------------------|   
D|------------------------|------------------------|   
A|--5-3-5---3-5-3-0-------|--0--3-3--0-------------|   
D|------------------------|--0--3-3--0-------------|   
  
    P.M...........   
              
E|------------------------|------------------------|   
B|------------------------|------------------------|   
G|------------------------|------------------------|   
D|------------------------|------------------------|   
A|--5-3-5---3-5-3-0-------|--0--3/5/3--5**--3**----|   
D|------------------------|--0--3/5/3--5**--3**----|   
  
E|------------------------------|-----------------------------|   
B|------------------------------|-----------------------------|   
G|------------------------------|-----------------------------|   
D|------------------------------|-----------------------------|   
A|-5*--3---7777----5--3---------|--5**--3--5**---3-3--0-------|   
D|-5*--3---7777----5--3---------|--5**--3--5**---3-3--0-------|   
  
E|--------------------------|-------------------------|   
B|--------------------------|-------------------------|   
G|--------------------------|-------------------------|   
D|-----------------5--------|------------3-**--3-5----|   
A|--0---------0----3--------|--0---------1-**--1-3----|   
D|-------5-3--0-------------|------5-3----------------|   
  
                             
                                          
E|----------------------------|------------------------|   
B|----------------------------|------------------------|   
G|----------------------------|------------------------|   
D|-----5-----------------3-*--|--3-5-------------------|   
A|-0---3---0-------0---- 1-*--|--1-3------0------------|   
D|-0---------5-3--0-----------|-----------0------------|   
(2 VEZES)   
     
(RIFF 3)SÓ GUITARRA   
E|------------------------|------------------------|   
B|------------------------|------------------------|   
G|------------------------|------------------------|   
D|------------------------|------------------------|   
A|--5-3-5---3-5-3-0-------|------------------------|   
D|------------------------|--0-3-5-3-0-------------|   
  
(REPETE O RIFF 2 E REFRÃO INTRO)   
  
E|------------------------|------------------------|   
B|------------------------|------------------------|   
G|------------------------|------------------------|   
D|------------------------|------------------------|   
A|-5-**-3-3--5-**--3------|-7777---5--3--5-3-3-----|   
D|-5-**-3-3--5-**--3------|-7777---5--3--5-3-3-----|   
  
E|------------------------|------------------------|   
B|------------------------|------------------------|   
G|------------------------|------------------------|   
D|------------------------|------------------------|   
A|-5*-3-\\----------------|------------------------|   
D|-5*-3-\\----------------|-0-5-6--0-5-6--0-5-6----|   
  
                     
E|------------------------------|------------------------|   
B|------------------------------|------------------------|   
G|------------------------------|------------------------|   
D|------------------------------|------------------------|   
A|------------------------------|------------------------|   
D|--9----0--5-6--0-5-6--0-5-6---|--------9---5-6-5-------|   
                H   
E|---------------------------|------------------------|   
B|---------------------------|------------------------|   
G|---------------------------|------------------------|   
D|------------5-6-5-------5--|------------------------|   
A|---------------------8-----|-8---3-4-5---5-5-5-5----|   
D|-5-4-4-3-------------------|-------------5-5-5-5----|   
  
    (Atenção neste trecho...o mais difícil da música)
E|------------------------|------------------------|   
B|----------8-------6-----|------------------------|   
G|-------------7-------7--|------------------------|   
D|----------------5-------|-----9------------------|   
A|-5-5-5------------------|--7-----7-----5---------|   
D|-5-5-5------------------|-----------7------------|   
  
E|------------------------|------------------------|   
B|------------------------|------------------------|   
G|------------------------|------------------------|   
D|------------------------|------------------------|   
A|-7-5--------------------|------------------------|   
D|------7-5--3-5-3--0-----|------------------------|   
  
(REPETE RIFF INTRO- REFRÃO)   
  
(FINAL)   
  
E|------------------------|------------------------|   
B|------------------------|------------------------|   
G|------------------------|------------------------|   
D|------------------------|------------------------|   
A|----5-4-3---------------|-----5-4-3-----3-3-0----|   
D|--0---------0--5-4-3----|-0----------0--3-3-0----|
   
E|------------------------|------------------------|
B|------------------------|------------------------|   
G|------------------------|------------------------|   
D|------------------------|------------------------|   
A|----5-4-3---------------|-----5-4-3-----3-3-0----|   
D|--0---------0--5-4-3----|-0----------0--3-3-0----|   
    
E|------------------------|------------------------|   
B|------------------------|------------------------|   
G|------------------------|------------------------|   
D|------------------------|------------------------|   
A|----7-6-5---------------|----7-6-5----3-3-0------|   
D|------------0---5-4-3---|-0---------0-3-3-0------|   
    

E|------------------------|------------------------|   
B|------------------------|------------------------|   
G|-------9-8-7------------|----------------9-8-7---|   
D|------------------------|------7-6-5-------------|   
A|------------------------|------------------------|   
D|------------------------|--0----------0----------|   
  
E|------------------------|------------------------|   
B|------------------------|------------------------|   
G|------------------------|------------------------|   
D|------------------------|------------------------|   
A|-----3-3-0--------------|------------------------|   
D|-0---3-3-0--------------|------------------------|   
    
  finalize usando esses esquemas pentatônicas.........

___________________________________________________________________
Colaboração: Peterson Schumacker - peteredani@ig.com.br 
    Correção: JOSÉ RENATO MENDES GIACOMINO - jgiacomino@bol.com.br
Correção: Dário Ricardo - dmdr@sapo.pt

><> Supergospel.com.br - O portal da música gospel

Também para esta música: Cifra | Tablatura de baixo

 RECURSOS    Corrigir música | Versão para impressão | Indicar a um amigo | Compre este CD
Copyright - 2001 - 2018 Supergospel. Todos os direitos reservados.