Twitter do SuperGospel Facebook do SuperGospel

Matérias em destaque



O tempo (Tablatura de guitarra / violão)
Oficina G3


Solo juninho
e|--------------------5-6-6^8------6^8---6-5-----------|
B|-----------5-6-8-------------5--------------6^8------|
G|--5----7-----------------------------------------5---|
D|-----------------------------------------------------|
A|-----------------------------------------------------|
E|-----------------------------------------------------|

e|------------------------------------6^8--------5-6-8-6-5---------------------6-8--|
B|---5-6-8-8^10-10---8^6-8-8^10-6----------5-6-8-----------8-6-5-6-8-5H6P5----------|
G|-7--------------------------------5--------------------------------------7-5------|
D|----------------------------------------------------------------------------------|
A|----------------------------------------------------------------------------------|
E|----------------------------------------------------------------------------------|

e|-8^10--8--5--5----------|
B|-------------6----------|
G|-----------------D*-----| -----  D* - harmônico natural em cima do 7º traste,
D|------------------------|             fazendo soar a nota D (afin. E).
A|------------------------|
E|------------------------|

___________________________________________________________________
Colaboração: Rafael Medeiros - holy5oldier@terra.com.br 
    Correção: Daniel Vinicius Teixeira - danielvtfs@ibest.com.br
Correção: Gabriel victor de Lacerda - maumauhd@hotmail.com
Correção: ivo de castilho vieira junior - ivo.de.vieira@itelefonica.com.br
Correção: adriano masiero neto - adriano_humano@hotmail.com

><> Supergospel.com.br - O portal da música gospel

Também para esta música: Cifra

 RECURSOS    Corrigir música | Versão para impressão | Indicar a um amigo | Compre este CD
Copyright - 2001 - 2018 Supergospel. Todos os direitos reservados.