Twitter do SuperGospel Facebook do SuperGospel

Matérias em destaque



Sempre mais (Tablatura de guitarra / violão)
Oficina G3


Intro: Em, A, Em, A, Em, C, B, A
riff1 (Solo Intro)Guitarra(1 Tom Abaixo)

d-12---------------------------------------------------------------|
A----12-------------------------------------------------12---------|
F-------13p11--9--11--9--11/13v--9h11p9-------------9-------9--11--|
C---------------------------------------------9h11-----------------|
G-----------------------------------------11-----------------------|
D------------------------------------------------------------------|

d------------------------------------------------------------------|
A-------------------------------------------------------------9--10|
F--9--11r--11--11--11p9---------------------------------9h11-------|
C------------------------11--9h11p9---------------9h11-------------|
G------------------------------------11--9--9h11-------------------|
D------------------------------------------------------------------|

d------------------------------------------------------------------|
A-----------------------10/12--10--9----------------------12r--12v-|
F--11---------------9-----------------9--------11r--11v------------|
C-------------9h11-----------------------9a\-----------------------|
G-------9h11-------------------------------------------------------|
D------------------------------------------------------------------|

d---------------------|
A-12--14--15--14--12--|
F---------------------|
C---------------------|
G---------------------|
D---------------------|

riff2 (dedilhado música)

d--------0-------0---------------0-------0-------|
A--------------0---0-------------------0---0-----|
F------9-----9-------9--------6------6------6----|
C----9-----9-----------9----7------7----------7--|
G------------------------------------------------|
D--0----------------------0----------------------|


D
Levanto os meus olhos
E busco encontrar
Procuro descanso
Em minh'alma alcançar
Tudo parece um sonho
                      Em
Não quero mais acordar 
F#m          G            A
Vivo o tempo todo a Ti buscar 
      D   Em         F#m
Sempre mais, muito mais...(4x)
       G     A     D
...eu vivo a Ti buscar...

Riff do baixo e violão
A|---2-3--2--0-|
E|-3-----------|

D
Em Você, eu encontrei abrigo
Eu sinto amor de um amigo
                                Em
Em teus braços eu descobri a paz
F#m          G            A
Vivo o tempo todo a Ti buscar 
       D   Em       F#m
Sempre mais, muito mais...(4x)
       G    A       D                    
...eu vivo a Ti buscar     
       D   Em      F#m  G
Sempre mais, muito mais

Riff da guitarra
E|---------|
B|---------|
G|---------|
D|-5--5s7~-|
A|-5--5s7~-|
E|---------|


C|----------------------------------------------------------------------|
G|-----------------------4h6-4------------------------------------------|
D|---------5s7-9-7~~s--x-------7-4---------4------------3s4~~-----4s5~~-|
A|-----5s7---------------------------7-5-7---7-5------------------------|
E|-5s7-------------------------------------------7-5-----------5--------|


C|----------------------------------------------------------------------------------|
G|----2h4~-2~---------------4------6-7~--4h6p4~--4h6p4-----4------------------------|
D|-x----------2h4p2p0---4-7----4-7---------------------7-4---7-4---------4-5-4------|
A|---------------------------------------------------------------5---5-7--------7-5-|
E|-----------------------------------------------------------------7----------------|


C|-------------------6~~-----------------------------------------------------------------|
G|-------4---------4-------------------------------------------------------4s6-----------|
D|-4-7-7---4-----4---------------------------7~-----------7-7---------7~~------7~--------|
A|-----------7-5-------------9p8p7-9~--9p8p7----------7-9-------9p7-9-------------7s5s7~-|
E|------------------------------------------------7s9------------------------------------|

C|-------------------------------|
G|-2s4---------------------------|
D|-----7-4-----------4h5p4-------|
A|---------7-5---7~--------5s7~~-|
E|-------------7-----------------|

Em                G                A
Sua voz é como as muitas águas do mar,
                             G            A
Que me traz segurança pra continuar, buscando

D   Em       F#m
Sempre mais, muito mais...
       G    A       D                    
...eu vivo a Ti buscar     
       D   Em      F#m  G
Sempre mais, muito mais...
       G    A         
...eu vivo a ti buscar
D           Bm      A/C#   G - D/F# - Em - D
Sempre mais, muito mais... 
D           Bm      A/C#  D/F# - G
Sempre mais, muito mais...

Riff do baixo e violão
A|-0-2-3--2--0-|
E|-------------|





___________________________________________________________________
Colaboração: Amanda Tangoda - atangoda@ig.com.br 
    Correção: Leandro André dos Santos - leandro_realidade@yahoo.com.br

><> Supergospel.com.br - O portal da música gospel

Também para esta música: Cifra | Tablatura de baixo

 RECURSOS    Corrigir música | Versão para impressão | Indicar a um amigo | Compre este CD
Copyright - 2001 - 2018 Supergospel. Todos os direitos reservados.