Twitter do SuperGospel Facebook do SuperGospel

Matérias em destaque



Além dos Montes (Tablatura de guitarra / violão)
Voz da Verdade


e|-------------------------------------14----14-15--15-14---------|
B|------12-15-17-17-15-12----12-15-17v----17--------------15-17v--|
G|---12-------------------12--------------------------------------|
D|----------------------------------------------------------------|
A|-7--------------------------------------------------------------|
E|----------------------------------------------------------------|

e|-----------------------14-15-14-15-17-19-19--19-20-22-|
B|-15-12------12-15-17-17-------------------------------|
G|--------12--------------------------------------------|
D|------------------------------------------------------|

___________________________________________________________________
Colaboração: Bruno Ramos Colosi - www.brunocolosi@ig.com.br 
    Correção: Alex Oliveira da Silva - alexiela@ig.com.br

><> Supergospel.com.br - O portal da música gospel

Também para esta música: Cifra

 RECURSOS    Corrigir música | Versão para impressão | Indicar a um amigo
Copyright - 2001 - 2018 Supergospel. Todos os direitos reservados.