Twitter do SuperGospel Facebook do SuperGospel

Matérias em destaque



Nome incomum (Tablatura de guitarra / violão)
Virtud


intro: 
e|------------------------------------------------------|  2x
B|------------------------------------------------------|
G|------------------------------------------------------|	
D|---------------------------------------------2--2-2---|
A|-0h2-----5-4-2-------5-4-2----5-4-2------2h4------2---|
E|-----0---------3-0---------3~-------3-0-----------0---|  2x

e|------------------------------------------------------|
B|------------------------------------------------------|
G|------------------------------------------------------|	
D|-2--2----2--2-2----2--2--------2----------------------|
A|-2--2----2--2-2----2--2----2h4------------------------|
E|-0--0----0--0-0----0--0-------------------------------|
                                           P.M.........
e|------------------------------------------------------|
B|------------------------------------------------------|
G|------------------------------------------------------|	
D|-2----2--2----2--2-2----2--2-------------7--7--7---7--|
A|-2----2--2----2--2-2----2--2--7-5~-------7--7--5---7--|
E|-0----0--0----0--0-0----0--0-------7-5-3-5--5--5---5--|

e|------------------------------------------------------|
B|------------------------------------------------------|
G|------------------------------------------------------|
D|------------5--------------7----9-9-9-----------------|
A|-7------5-----7--5---------7----9-9-9-----------------|
E|----5h7---7--------7-5-3---5----7-7-7-----------------|

e|------------------------------------------------------|
B|------------------------------------------------------|
G|------------------------------------------------------|
D|-2--2-2-------7-5--7-7----2--2-2----7--5-5-5--4-------|
A|-2--2-2-------7-5--5-7----2--2-2----7--5-5-5--4-------|
E|-0--0-0---3/5-5-3----5----0--0-0--3-5--3-3-3--2-------|

e|------------------------------------------------------|
B|------------------------------------------------------|
G|------------------------------------------------------|
D|-2--2-2-------7-5--7-7----4--4-4----7-----------------|
A|-2--2-2-------7-5--5-7----4--4-4----7-----------------|
E|-0--0-0---3/5-5-3----5----2--2-2----5-----------------|

volta ao inicio

todo joelho se dobrara............
e|------------------------------------------------------|
B|------------------------------------------------------|
G|--------------------7---------------------------------|
D|-6-6-6-6-6-6-4-2-7-----9------------------------------|
A|-4-4-4-4-4-4-2-4-5-----9------------------------------|	
E|-----------------------7------------------------------|

volta a intro e faz o solo.

este e o finalzinho
                                        NOME INCOMUM      
e|------------------------------------------------------|
B|--------------------------------------------9\8-------|
G|-------------------------------------------10\9-------|
D|-2--2-2-------7-5--7-7----4--4-4----7-----------------|
A|-2--2-2-------7-5--5-7----4--4-4----7-----------------|
E|-0--0-0---3/5-5-3----5----2--2-2----5-----------------|

e|------------------------------------------------------|
B|------------------------------------------------------|
G|------------------------------------------------------|
D|------------------------------------------------------|
A|---5-4------------------------------------------------|
E|-0-----3~--0------------------------------------------|

Nesta tab nao contem os solos feitos por fernando modesto.
E' uma tab da base feita por ele.
E' ouvir o cd e mandar ve!!!

___________________________________________________________________
Colaboração: Neto batera - netobgn@bol.com.br 

><> Supergospel.com.br - O portal da música gospel

Também para esta música: Cifra

 RECURSOS    Corrigir música | Versão para impressão | Indicar a um amigo
Copyright - 2001 - 2018 Supergospel. Todos os direitos reservados.