Twitter do SuperGospel Facebook do SuperGospel

Matérias em destaque



Projeto no Deserto (Tablatura de guitarra / violão)
Voz da Verdade


e |--------------------------------|
B |--------------------------------|
G |----2-4-5--5-4-2--(2)-----------|
D |--2-------------------2-3-5-----|
A |----------------------------/5--|
E |--------------------------------|

                                                

e |----5-7-8--8-7-5--------10-12--12-12-13-10--|
B |--5---------------10-13---------------------|
G |--------------------------------------------|
D |--------------------------------------------|
A |--------------------------------------------|
E |--------------------------------------------|

                                          

e |--5-8---------------------------------|
B |------5-8----------/10--10-10-10^8-8--|
G |----------5-7---5--/10--10-10-10^9-9--|
D |--------------7-----------------------|
A |--------------------------------------|
E |--------------------------------------|

                                          

e |--------------------------------------|
B |--6-5-5-3-----------------------------|
G |--7-5-5-4-------0-2-2------0-2-2-0-0--|
D |------------0^2---------0^2-----------|
A |--------------------------------------|
E |--------------------------------------|

___________________________________________________________________
Colaboração: Thiago Faraone Munck - thiago@cimcorp.com.br 
    Correção: Alex Oliveira da Silva - alexiela@ig.com.br

><> Supergospel.com.br - O portal da música gospel

Também para esta música: Cifra

 RECURSOS    Corrigir música | Versão para impressão | Indicar a um amigo
Copyright - 2001 - 2018 Supergospel. Todos os direitos reservados.