Twitter do SuperGospel Facebook do SuperGospel

Matérias em destaque



Ele vai voltar (Tablatura de baixo)
Virtud


Intro:
G||---------|---------------------------|-----------------------------||
D||---------|---------------------5-----|-----------------------------||
A||---------|------3-3-------5-5----7-5-|------3-3-------5-5--5///\\\-||
E||-///-\\\-|-0-0-------3-3-------------|-0-0-------3-3---------------||

Verso:
G||----------------------------------------|---------------------------||
D||------------------------------------2---|---------------------5-----||
A||----------3-3-3-3-----------5-5---5---5-|------3-3-------5-5----7-5-||
E||-0-0-0-0-----------3-3-3-3--------------|-0-0-------3-3-------------||
   |------------------4x------------------| |------------4x-----------|

"não jogue pedras em cima do muro..."
G||----------------------|-----------------------------------------|
D||----------------------|-----------------------------------------|
A||-0-0-0-0-0-0----------|--------3-3-3-3--5-5-5---0---------------|
E||-------------3--3-2-0-|-0-0-0----------------------3-2-0~///\\\-|

G|----------------------|--------------------------|-------------||
D|----------------------|--------------------------|-------------||
A|-0-0-0-0-0-0----------|--------3-3-3--------5--5-|-5/17~-15\\\-||
E|-------------3--3-2-0-|-0-0-0---------3--3-------|-------------||

Refrão:
G||------------------------------|---------------------------||
D||------------------------------|---------------------------||
A||-------3--3--5--5--5-5-5--0---|---------3-3-3-3---------5-||
E||-0--0-----------------------3-|-0-0-0-0---------3-3-3-3---||
   |-------------3x-------------|

Ponte:
G||----------------------------------------|--------------------------------------|
D||------------------------------------2---|--------------------------------------|
A||----------3-3-3-3-----------5-5---5---5-|--------------------------------------|
E||-0-0-0-0-----------3-3-3-3--------------|-0-0-0-0/8-8-8-8--3-3-3-3/10-10-10-10-|

G|-----------------------------------------||
D|-------------------------------------2---||
A|-----------3-3-3-3-----------5-5---5---5-||
E|--0-0-0-0-----------3-3-3-3--------------||
  |-------------------2x------------------|

___________________________________________________________________
Colaboração: Daniel - os_cuspins@hotmail.com 

><> Supergospel.com.br - O portal da música gospel

Também para esta música: Cifra

 RECURSOS    Corrigir música | Versão para impressão | Indicar a um amigo
Copyright - 2001 - 2018 Supergospel. Todos os direitos reservados.