Twitter do SuperGospel Facebook do SuperGospel

Matérias em destaque



Senhor, Te quero (Tablatura de guitarra / violão)
Vineyard Music


Base: G C Em D C G D G


     G* G        G* G        C* C         C* C  C9    Em*Em Em Em D*  
e ||-3--3--------3--3--------0--0---------0--0--0--0--0--0--0--0--2----------|
B ||-3--3--------3--3--------1--1---------1--1--3--1--0--0--1--3--3----------|
G ||-0--0--------0--0--------0--0---------0--0--0--0--0--0--0--0--2--2/4-2-0-|
D ||-0--0--0h2-0-0--0--------2--2--0h2-0--2--2--2--2--2--2--2--2--0----------|
A ||-2--2--------2--2--0h-3--3--3---------3--3--3--3--2--2--2--2-------------|
E ||-3--3--------3--3---------------------------------0--0--0--0-------------|

      
      C                   G
e ||--3-2-0---------------3--|
B ||--------3-1-------   -3--|
G ||------------0---------0--|
D ||--------------0h2-0---0--|
A ||----------------------2--|
E ||----------------------3--|

Tocar com palheta somente para baixo,ou seja, fazendo base,(*)é para abafar.

___________________________________________________________________
Colaboração: Thiago Faraone Munck - thifm@ibest.com.br 
    Correção: Flavio Siqueira - aflavios@hotmail.com
Correção: VINICIUS KENJI DE SEQUEIRA - viversemjesusnaoda@hotmail.com

><> Supergospel.com.br - O portal da música gospel

Também para esta música: Cifra | Tablatura de baixo

 RECURSOS    Corrigir música | Versão para impressão | Indicar a um amigo | Compre este CD
Copyright - 2001 - 2018 Supergospel. Todos os direitos reservados.