Twitter do SuperGospel Facebook do SuperGospel

Matérias em destaque



Deeper (Tablatura de guitarra / violão)
Delirious?


INTRO *BAIXO*:
||-------------------|------------------|------------------|
||-------------------|------------------|------------------|
||-------------------|------------------|------------------|
||---/12-12-12-12-10-|10h12-12-12-12-10-|10h12-12-12-12-10-|

|------------------||
|------------------||
|------------------||
|10h12-12-12-12-12-||


[As Guitarras entram...]
     E/B/C#m/A
     E/B/D/A

(*BAIXO*)
          E              D
I wanna go deeper but I dunno how to swim,
          C#                    B
I wanna be meeker but have you seen this old life,
            E                  D
I wanna fly higher but these arms won\'t take me there,
    C#          B
I wanna be, I wanna be...

[Guitarras de novo]


A              F#m                   C#m      B
Maybe I could run, and maybe I could fly to you,
A                   F#m                     C#m      B     A
But do you feel the same, when all I see is blame in me?



E
And the wonder of it all,
B
Is that I\'m living just to fall,
C#m                    A
More in love with you,
E
And the wonder of it all,
B
Is that I\'m living just to fall,
D                       A
More in love with you yeah.


O baixo continua tocando como a primeira estrofe, enquanto uma
guitarra limpa (acústica) toca essa linha. 
   E              D              C#m            B
||--------------|--------------|--------------|--------------||
||--------------|--------------|--------------|--------------||
||----4-----4---|----4-----4---|----4-----4---|----4-----4---||
||-2----2-2---2-|-0----0-0---0-|--------------|--------------||
||--------------|--------------|-4----4-4---4-|-2----2-2---2-||
||--------------|--------------|--------------|--------------||


             E                 D
I wanna go deeper but is it just a stupid whim?
            C#m               B
I wanna be weaker, being help to the strong,
            E                 D
I wanna run faster, but this leg won\'t carry me,
       C#m         B
I wanna be, I wanna be...


Volta ao Pré refrão     A/F#m/C#m/B   A/F#m/C#m/B/A

Repete Refrão X2  E/B/C#m/A E/B/D/A E/B/C#m/A E/B/D/C#m



C#m               B                     A
Maybe I could run, Maybe I could follow,
F#m                   G#m                       B B C#m
It\'s time to walk the path where many seem to fall,
C#m               D                            A
Hold me in your arms just like a father would,
B       C#m
How long do we have to wait?
D        C
How long?...We\'re going all the way.

C#m-B-C#m-F#m

SOLO (com acordes em CHORUS)
||----------------|-----------------|-----------------|
||----------------|-----------------|-----------------|
||-8-9-11--8-9----|-8-9-11-9-8-9----|-8-9-11-9-8-9----|
||-------------9--|--------------9--|--------------9--|
||----------------|-----------------|-----------------|
||----------------|-----------------|-----------------|

|-----------------|-----------------|-----------------|
|------------12~--|-----------------|--------9--------|
|-8-9-9-8-9-------|-8-9-11-9-8-9----|-8-9-11---8-9----|
|-----------------|--------------9--|--------------9--|
|-----------------|-----------------|-----------------|
|-----------------|-----------------|-----------------|

|--------------|-----------------||
|--------------|-----------------||
|-7--9-11--14--|-13--16~-16~-16~-||
|--------------|-----------------||
|-5--7--9--12--|-11--14~-14~-14~-||
|--------------|-----------------||

___________________________________________________________________
Colaboração: Leonardo MrDrummer Carraretto - leonardoc@escelsa.com.br 

><> Supergospel.com.br - O portal da música gospel

Também para esta música: Cifra

 RECURSOS    Corrigir música | Versão para impressão | Indicar a um amigo
Copyright - 2001 - 2018 Supergospel. Todos os direitos reservados.