Twitter do SuperGospel Facebook do SuperGospel

Matérias em destaque



Back From Hell (Tablatura de guitarra / violão)
Narnia


Afine a guitar em D#

E-----------------------------------------------------------------------------------|
B-------------------|---------------------------------------------------------------|
G---Sound-Effects---|*--------5----------------------------------7------------------|
D-----(4-sec)-------|*--------5-----4/5-----------4/5-4/5--------7-----4/5-----7\6--|
A-------------------|---------3-----4/5-----------4/5-4/5--------5-----4/5-----7\6--|
E-----------------------0-0-0----0--2/3--0-0-0-0--2/3-2/3--0-0-0----0--2/3--0--5\4--|
                       pm....|  pm      pm......|         pm....|  pm      pm      p

                                                                                 x2
E-----------------------------------------------------------------------------------|
B-----------------------------------------------------------------------------------|
G----------------5----------------------------------7---------7/8-----8\7-----10\9-*|
D----4/5---------5-----4/5-----------4/5-4/5--------7---------7/8-----8\7-----10\9-*|
A----4/5---------3-----4/5-----------4/5-4/5--------5---------5/6-----6\5------8\7--|
E3-0-2/3--0-0-0-----0--2/3--0-0-0-0--2/3-2/3--0-0-0----0-3-0-------0-------0--------|
 m..|    pm....|   pm      pm......|         pm....|  pm....|     pm      pm

                                               (End Intro) x4    Verse 1 
E-------------------------------------------------------------||--------------------|
B-------------------------------------------------------------||--------------------|
G*-----------------------------------------------------------*||--Clean-Guitar-enter|
D*--2~---2/3--2~----2/3--2~---2/3--2~---2/3--2~-----3/5-5-5--*||----with------------|
A---2~---2/3--2~----2/3--2~---2/3--2~---2/3--2~-----3/5-5-5---||--Chorus-effect-----|
E------0----------0---------0---------0---------0-0-----------||--------------------|
      pm         pm        pm        pm        pm..|

E------------------------------------0----------------------------------------------|
B-----------------------3~-------3~----3---------------3~---------------------3~----|
Gs-at-(1:02):--------0~-------0~---------0~---------0~-----2~---2-4~-------0~-------|
D----------------4~-------------------------------4-------------.----\-4~---------4~|
A---------------------------3-------------------2---------------------------------.-|
E--------------0----------------------------\-0-------------------------------------|

                                       Bridge
E---------0-------------------------------------------------------------------------|
B-/3~-------3----------3~-----------|-----------------------------------------------|
G-------------0~----0~------\-4-2~--|*--5\4----------2/4----------5\4----------2/4--|
D------4----------------------------|*--5\4----------2/4----------5\4----------2/4--|
A-----------------------------------|---3\2-2-2-2-2--0/2-2-2-2-2--3\2-2-2-2-2--0/2-2|
E-----------------------------------------------------------------------------------|
                                           pm......|    pm......|    pm......|    pm
                                                                          __________
                                                                         |1.        
E------------------------------------------------------------------------|----------|
B------------------------------------------------------------------------|----------|
G----7\5-5~--5\2-2~--5\4----------2/4----------5\4----------2/4----------|--7\5-5~--|
D----7\5-5~--5\2-2~--5\4----------2/4----------5\4----------2/4----------|--7\5-5~--|
A-2--5\3-3~--3\0-0~--3\2-2-2-2-2--0/2-2-2-2-2--3\2-2-2-2-2--0/2-2-2-2-2--|--5\3-3~--|
E------------------------------------------------------------------------|----------|
 ..|                    pm......|    pm......|    pm......|    pm......|
 ___________ __________________
            |2.                |  Chorus
E-----------|------------------||---------------------------------------------------|
B-----------|------------------||---------------------------------------------------|
G--5\2-2~--*|--7\5~--7/10~--\--||*--------5---------------------------------7-------|
D--5\2-2~--*|--7\5~--7/10~--\--||*--------5----4/5-----------4/5-4/5--------7----4/5|
A--3\0-0~---|--5\3~--5/8~---\--||---------3----4/5-----------4/5-4/5--------5----4/5|
E-----------|------------------||---0-0-0---0--2/3--0-0-0-0--2/3-2/3--0-0-0---0--2/3|
                                   pm....| pm      pm......|         pm....| pm

E-----------------------------------------------------------------------------------|
B-----------------------------------------------------------------------------------|
G-------------------------5----------------------------------7---------7/8-----8\7--|
D-----7\6------4/5--------5-----4/5-----------4/5-4/5--------7---------7/8-----8\7--|
A-----7\6------4/5--------3-----4/5-----------4/5-4/5--------5---------5/6-----6\5--|
E--0--5\4--3-0-2/3--0-0-0----0--2/3--0-0-0-0--2/3-2/3--0-0-0----0-3-0-------0-------|
  pm      pm..|    pm....|  pm      pm......|         pm....|  pm.....|    pm

          x2
E-----------------------------------------------------------------------------------|
B------------|----------------------------------------------------------------------|
G----10\9---*|----------------------------------------------------------------------|
D----10\9---*|--2~----2/3--2~----2/3--2~----2/3--2~----2/3--2~----3/5-5-5--\-2~----2|
A-----8\7----|--2~----2/3--2~----2/3--2~----2/3--2~----2/3--2~----3/5-5-5--\-2~----2|
E--0---------------0----------0----------0----------0---------0-0---------------0---|
  pm              pm         pm         pm         pm        pm...|            pm

                                              Verse 2 (With Chorus effect)
E-----------------------------------------------------------------------0-----------|
B-------------------------------------------|-----------3~---------3~-----3---------|
G-------------------------------------------|--------0~---------0~----0-----0~------|
D/3--2~----2/3--2~----2/3--2~----2/3\2-\----|----4~------------------------------2~-|
A/3--2~----2/3--2~----2/3--2~----2/3\2-\-\--|----------------3----------------------|
E-------0----------0----------0----------\-----0------------------------------------|
       pm         pm         pm

E---------------------------------------------0-------------------------------------|
B-----3~-------------0~---------3~-------3~-----3-------------3~--------------------|
G--0~-------2-----2~---------0~--------0----0-----0~-------0~-------0-2-----0---0-2~|
D---------2---2-2-------\-4~---------4------------------4~--------2-----2-2---0-----|
A-------------------------.---------------------------------------------------------|
E-----------------------------------------------------0-----------------------------|

E------------0----------------0--------------------------------------------------0--|
B----------3---3~-------3-------3---------3~------------------------3~--------3~---3|
G-------0~------------0---0-------0----0~-----0-2----2/4~--------0~--------0~-------|
D----4~------------4~-------4---------------------2~---------4~---------4~----------|
A-----------------------------------------------------------------------------------|
E--0-------------------------------------------------------0------------------------|

                                                                          Guitar Sol
E------------0~---------------------------------------------------------------------|
B----------3------------|------------|------------|---------------------|-----------|
G-0~-----0-------0~-2~--|---Bridge---|---Chorus---|--------------4--5---|-----------|
D-----4~----------------|------------|------------|--5--6--7--8--4--5---|-----14----|
A-----------------------|------------|------------|--5--6--7--8--2--3---|--------12-|
E----------------------------------------------------3--4--5--6------------10-------|

 o
E------------------------------------------------------------/-17-13-------15-13----|
B-------------13----11-10--------------------------------------------15----------12-|
G-------------------------12~-10----------------------------------------14----------|
D-15-14-12-------10--------------12-10----14-15----15-14----------------------------|
A----------12--------------------------12-------13-------12~------------------------|
E-----------------------------------------------------------------------------------|

E------------------------------------------------------------/-17-13--------15-13---|
B----15\-------------------------13----11-10-------------------------15-----------12|
G-13-----------------------------------------12~-10---------------------14----------|
D--------------14----15-14-12-------10--------------12-10---------------------------|
A-----------------12----------12--------------------------12------------------------|
E---------\-10----------------------------------------------------------------------|

                                    Two Guitars.....................................
E-----13p10-----15p12------17p13-----/17~~--15--------------------------------------|
B----------11--------13---------15-------------18-18b(20)~-r\-15-18-18b(20)~--r18-17|
G-13---------10--------12---------14-\14~~--12--------------------------------------|
D----------------------------------------------15-15b(17)~-r\-12-15-15b(17)~--r15-14|
A-----------------------------------------------------------------------------------|
E-----------------------------------------------------------------------------------|

 ..........................|
E-----------------------------------------------------------------------------------|
B-(18)r17---------------------------15-17-18-17-15----------15-17-18-17-15----------|
G---------17b(19)r17b(19)r-\--14-17----------------17-14-17----------------17-14-17-|
D-(15)r14-12b(14)r12b(14)r-\--------------------------------------------------------|
A-----------------------------------------------------------------------------------|
E-----------------------------------------------------------------------------------|

E-----------------------------------------------------------------------------------|
B-15-17-18-17-15/18-17-15----------15-17-18-17-15----------15-17-18-17-15/18-17-15--|
G-------------------------17-14-17----------------17-14-17-------------------------\|
D-----------------------------------------------------------------------------------|
A-----------------------------------------------------------------------------------|
E-----------------------------------------------------------------------------------|

                                              Whammy pedal.................|
                                                 T     T         T     T       T
E----------------------------------------------/26p25h26p25~---25p24h25p24~-\-24p22h|
B---------15-17-18-17-15----------15-17-18~~------trill-----------trill-------------|
G17-14-17----------------17-14-17---------------------------------------------------|
D-----------------------------------------------------------------------------------|
A-----------------------------------------------------------------------------------|
E-----------------------------------------------------------------------------------|

   T       T     T    T     T     T     T      T     T     T     T       T     T
Eh24p22h24p22h24p22-\22p20h22p20h22p20h22p20-\20p19h20p19h20p19h20p19-\-19p17h19p17h|
B-----------------------------------------------------------------------------------|
G-----------------------------------------------------------------------------------|
D-----------------------------------------------------------------------------------|
A-----------------------------------------------------------------------------------|
E-----------------------------------------------------------------------------------|

   T     T      T     T      T     T      T     T      T     T      T     T       T
Eh19p17h19p17-/22p20h22p20-\20p19h20p19-\19p17h19p17-\17p16h17p16-/19p17h19p17-\-17p|
B-----------------------------------------------------------------------------------|
G-----------------------------------------------------------------------------------|
D-----------------------------------------------------------------------------------|
A-----------------------------------------------------------------------------------|
E-----------------------------------------------------------------------------------|

     T      T     T     T     T
E16h17p16-\16p13h16p13h16p13h16p13--\-12------13------12------13------12------13----|
B-----------------------------------\-15b(17)-16b(18)-15b(17)-16b(18)-15b(17)-16b(18)
G-----------------------------------------------------------------------------------|
D-----------------------------------------------------------------------------------|
A-----------------------------------------------------------------------------------|
E-----------------------------------------------------------------------------------|

                                                     Tremolo Bar:
E-12------13------12------------------------/15~-------\\---------------------------|
B-15b(17)-16b(18)-15b(17)-r15-15-15b(17)r15-/18b(20)~---\\\-------/<5>~~------------|
G---------------------------------------------------------\\\----//<5>~~--\\-//-\\//|
D---------------------------------------------------------------//---------\\-//\\//|
A-----------------------------------------------------------------------------------|
E-----------------------------------------------------------------------------------|
                          pm.....|
 
E-----------------------------------------------------------------------------------|
B--------------------------------------<7>~~-////////-\\////--\\////-//\\//\\//\\//-|
G-\\-----------------------------------<5>~~-///////--\\////--\\////-//\\//\\//\\//-|
D---\\------<3>-\\---\\\------------------------------------------------------------|
A----\\-----<3>-\\\\\-\\-\\\----<5>///----------------------------------------------|
E-----\\\---<3>-\\-\\\\\\\--\\\-<5>///----------------------------------------------|

               Riff 1:                                          (end Riff 1)  Verse 
E-----------------------------------------------------------------------------------|
B--\\--------|--------------------------------------------------------------|-------|
G--\\\\\-----|--------------------------------------------------------------|-------|
D--\\\\\\----|--2~----2/3--2~----2/3--2~----2/3--2~----2/3--2~----3/5-5-5\--|----4~-|
A------\\\---|--2~----2/3--2~----2/3--2~----2/3--2~----2/3--2~----3/5-5-5\--|-------|
E-----------------0----------0----------0----------0----------0-0--------------0----|
                 pm         pm         pm         pm         pm..|

  3 (With Chorus effect)
E----------------0-------------------------------------------------------0----------|
B----3~-------3~----3---------------3~----0----------------3~-----/3~------3--------|
G-0~-------0~---------0~---------0~-----2------4~-------0~-------------------0~--0~-|
D------------------------------4-------------2----\-4~---------4~------4------------|
A--------3-------------------2---------------------------------.--------------------|
E-------------------------\0--------------------------------------------------------|

E-----------------------------------------------------------------------------------|
B-3~-----------|------------|------------|-----------------|-----------|------------|
G-----\--4-2~--|---Bridge---|---Chorus---|---Riff-1-(x2)---|---tacet---|---Riff-1-(x|
D--------------|------------|------------|-----------------|---1-sec---|------------|
A--------------|------------|------------|-----------------|-----------|------------|
E-----------------------------------------------------------------------------------|
                           
E-----------------------------------------------------------------------------------|
B-----|-----------|-----------------------------------------------------------------|
G4)---|---tacet---|*----------------------------------------------------------------|
D-----|---½-sec---|*---2~---2/3\2\0/2----2/3\2\0/2----2/3\2\0/2----2/3\2\0/2--0-0---|
A-----|-----------|----2~---2/3\2\0/2----2/3\2\0/2----2/3\2\0/2----2/3\2\0/2--0-0-\-|
E----------------------0~-0---------0--0------------0------------0----------------\-|
                         pm           pm           pm           pm           pm..|

E------------|| Repeat many
B------------|| times and fade out
G-----------*|| while Sound FX & Narrative
D-----------*|| fades in
A\-3/5-5-5---||
E\-1/3-3-3---||

--------------------------------------------------------------------------------------

  Rhythm Guitar during Guitar Solo                                       x4
E-----------------------------------------------------------------------------------|
B---3-----3~--3------3-----3~--3------6-----6~--6------6-----6/8~--8--------|-------|
G*--2-----2~--2------2-----2~--2------3-----3~--3------3-----3/5~--5-------*|*------|
D*----0-0--------0-0---0-0--------0-0---0-0--------0-0---0-0----------0-0--*|*--2~--|
A---------------------------------------------------------------------------|---2~--|
E----------------------------------------------------------------------------------0|
     pm..|      pm..| pm..|      pm..| pm..|      pm..| pm..|        pm..|        pm
                                             ________________ ______________________
                                            |1.2.3.4.5       |6.
E-------------------------------------------|----------------|----------------------|
B-------------------------------------------|----------------|----------------------|
G-------------------------------------------|---------------*|----------------------|
D--2/3--2~----2/3--2~----2/3--2~----2/3--2~-|------3/5-5-5--*|----2/3--2~----2/3--2~|
A--2/3--2~----2/3--2~----2/3--2~----2/3--2~-|------3/5-5-5---|----2/3--2~----2/3--2~|
E----------0----------0----------0----------|--0-0-----------|-0----------0---------|
          pm         pm         pm            pm..|           pm         pm
 _____________________________________
                                      |
E-------------------------------------||
B-------------------------------------||
G-------------------------------------|| end
D----2/3--2~----2/3--2~-----3/5-5-5---||
A----2/3--2~----2/3--2~-----3/5-5-5---||
E-0----------0----------0-0-----------||
 pm         pm         pm..|

--------------------------------------------------------------------------------------

=======================
=TABLATURE EXPLANATION=
=======================

A.H. = Artificial Harmonic

pm..| = Palm mute

h = hammer on

p = pull off

/ = slide up

\ = slide down

~ = Vibrato

b() = Bend

x\ = Pick Slide

--------
--------
---12--- = Tremolo pick
----/---
----/---
----/---

---.---
--12--- = Staccato
-------
-------
-------

|     |
|     |
|*   *| = repeat from * to *
|*   *| 
|     |

LYRICS:
***************************************************

Where Can I run? And where can I hide?
I'm trapped inside, can't find my way out.
No place to call home and no one here to carry me
I am a lonely soldier, I fight my own war
Everyone's caught up in themselves
My wounded soul is tearing me down

Into the fire I run
Someone out there, help me to escape
I hear voices from hell so loud and clear
Laughing at me

I'm back
I'm back from hell again
But hell is everywhere
Back
I'm back from hell again
But hell is everywhere

If there's a god in heaven
Have mercy on my fallen soul
My demons are haunting me
They never seem to leave me alone
Insomnia, delusions, I'm dreaming awake
Afraid to fall asleep
Bad memories are haunting me
If you see me - come and rescue me

Into the fire I run
Someone out there, help me to escape
I hear voices from hell so loud and clear
Laughing at me

I'm back
I'm back from hell again
But hell is everywhere
Back
I'm back from hell again
But hell is everywhere

Everything is so dark and cold
Death is all I'm longing for
I've killed so many in the name of pride
Can someone hear a suicidal hero's cry?

Into the fire I run
Someone out there, help me to escape
I hear voices from hell so loud and clear
Laughing at me

I'm back
I'm back from hell again
But hell is everywhere
Back
I'm back from hell again
But hell is everywhere

___________________________________________________________________
Colaboração: Leonardo Queiroga Ramirez - salvation@pop.com.br 

><> Supergospel.com.br - O portal da música gospel

 RECURSOS    Corrigir música | Versão para impressão | Indicar a um amigo | Compre este CD
Copyright - 2001 - 2018 Supergospel. Todos os direitos reservados.