Twitter do SuperGospel Facebook do SuperGospel

Matérias em destaque



No Time To Lose (Tablatura de guitarra / violão)
Narnia


Afine a guitar em D#


E-----------------------------------------------------------------------------------|
B---------------|-------------------------------------------------------------------|
G---Drum-fill---|---------/-9----------------/-9-----------------/-9----------------|
D----(2-sec)----|---------/-9---7-/9---------/-9---7-/9----------/-10---7-/10-------|
A---------------|---------/-7---7--7---------/-7---7--7----------/-7----7---7-------|
E------------------0-0--0-------------0-0--0-------------0-0--0----------------0-0--|
                  pm.....|           pm.....|           pm......|             pm....

E-----------------------------------------------------------------------------------|
B-----------------------------------------------------------------------------------|
G---/-9~---7~-----------/-9------------------/-9----------------/-9-----------10~---|
D---/-10~--7~-----------/-9---7-/-9----------/-9--7-/9----------/-10--7-/10---10~---|
A---/-7~---5~-----------/-7---7---7----------/-7--7--7----------/-7---7---7----8~---|
E-0------------\-0-0--0--------------0-0--0-------------0-0--0----------------------|
 ..|            pm.....|            pm.....|           pm.....|

E-----------------------------------------------------------------------------------|
B--Guitar-1:------------------------------------------------------------------------|
G----------/-9------------------/-9-----------------/-9--------------------/-9~---7~|
D----------/-9---7-/9-----------/-9---7-/9----------/-10---7-/10-----------/-10~--7~|
A----------/-7---7--7-----------/-7---7--7----------/-7----7---7-----------/-7~---5~|
E--0-0-0-0--------------0-0-0-0-------------0-0-0-0----------------0-0-0-0----------|
  pm......|            pm......|           pm......|              pm......|         |
E-Guitar-2:-------------------------------------------------------------------------|
B------5-7-/-8~--5~----12~--10-8----------------------------------10~--8------------|
G--------------------------------11~--9~--------9-11-12~---9~------------11--9~~----|
D-----------------------------------------------------------------------------------|
A-----------------------------------------------------------------------------------|
E-----------------------------------------------------------------------------------|

E----------------------------------------------------------------------------------||
B----------------------------------------------------------------------------------||
G---------/-9------------------/-9-----------------/-9------------10~---------4~--\||
D---------/-9---7-/9-----------/-9---7-/9----------/-10---7-/10---10~---------4~--\||
A---------/-7---7--7-----------/-7---7--7----------/-7----7---7----8~---------2~--\||
E-0-0-0-0--------------0-0-0-0-------------0-0-0-0---------------------------------||
  pm......|            pm......|           pm......|                               ||
E----------------------------------------------------------------------------------||
B-----5-7-/-8~--5~----12~--10-8----------------------------------10~--8------------||
G-------------------------------11~--9~--------9-11-12~---9~------------10-9--8~---|| end
D----------------------------------------------------------------------------------||
A----------------------------------------------------------------------------------||
E----------------------------------------------------------------------------------||

                                                                        (end Intro)
E----------------------------------------------------------------------------------||
B----------------------------------------------------------------------------------||
G----------------------------------------------------------------------------------||
D-5~-------------------------------------------------------------------------------||
A----6~----------------------------/5~-4~--3~---------------------------/5~-4~--3~-||
E--------0~-2~--3~--5~--3-2-0~--2~------------0~-2~--3~--5~--3-2-0~--2~------------||

                 Bridge
E-----------------------------------------------------------------------------------|
B--------------|--------------------------------------------------------------------|
G---Verse-1----|*--------4-\-2-/-4~----5-5-\-2-2-/-5-5-\-4----------4---/-7---------|
D-(no-guitar)--|*--------4-\-2-/-4~----5-5-\-2-2-/-5-5-\-4----------4---/-7----7----|
A--------------|--2-2-2--2-\-0-/-2~----3-3-\-0-0-/-3-3-\-2-2--2-2-0-2---/-5----7----|
E------------------------------------------------------------------------------5----|
                 pm....|                                  pm.......|

          x2   Verse 2
E-----------------------------------------------------------------------------------|
B------------|----------------------------------------------------------------------|
G----/--5~--*|*---------------------------------------------------------------------|
D-5--/--5~--*|*---------------------------------------------------------------------|
A-5--/--3~---|----------------------------/5~-4~--3~-----------------------------/5~|
E-3--------------0~-2~--3~--5~--3-2-0~-2~-------------\-0~-2~--3~--5~--3-2-0~-2~----|

         x2                Chorus
E-----------------------------------------------------------------------------------|
B-----------|------------|----------------------------------------------------------|
G----------*|---Bridge---|---------/-9----------------/-9----------------/-9--------|
D----------*|------------|---------/-9---7-/9---------/-9---7-/9---------/-10--7-/10|
A--4~--3~---|------------|---------/-7---7--7---------/-7---7--7---------/-7---7---7|
E---------------------------0-0--0-------------0-0--0-------------0-0--0------------|
                           pm.....|           pm.....|           pm.....|
E-----------------------------------------------------------------------------------|
B-----------------------------------------------------------------------------------|
G---------/-9~---7~----------/-9----------------/-9----------------/-9---------10~--|
D---------/-10~--7~----------/-9---7-/9---------/-9---7-/9---------/-10--7/10--10~--|
A---------/-7~---5~----------/-7---7--7---------/-7---7--7---------/-7---7--7---8~--|
E--0-0--0------------\0-0--0-------------0-0--0-------------0-0--0------------------|
  pm.....|          pm......|           pm.....|           pm.....|

E--Guitar-1:------------------------------------------------------------------------|
B-----------------------------------------------------------------------------------|
G----------/-9------------------/-9-----------------/-9--------------------/-9~---7~|
D----------/-9---7-/9-----------/-9---7-/9----------/-10---7-/10-----------/-10~--7~|
A----------/-7---7--7-----------/-7---7--7----------/-7----7---7-----------/-7~---5~|
E--0-0-0-0--------------0-0-0-0-------------0-0-0-0----------------0-0-0-0----------|
  pm......|            pm......|           pm......|              pm......|         |
E--Guitar-2:------------------------------------------------------------------------|
B------5-7-/-8~--5~----12~--10-8----------------------------------10~--8------------|
G--------------------------------11~--9~--------9-11-12~---9~------------11--9~~----|
D-----------------------------------------------------------------------------------|
A-----------------------------------------------------------------------------------|
E-----------------------------------------------------------------------------------|

E-----------------------------------------------------------------------------------|
B-----------------------------------------------------------------------------------|
G---------/-9------------------/-9-----------------/-9------------10~---------4-4-4-|
D---------/-9---7-/9-----------/-9---7-/9----------/-10---7-/10---10~---------4-4-4-|
A---------/-7---7--7-----------/-7---7--7----------/-7----7---7----8~---------2-2-2-|
E-0-0-0-0--------------0-0-0-0-------------0-0-0-0----------------------------------|
  pm......|            pm......|           pm......|                         pm.....|
E-----------------------------------------------------------------------------------|
B-----5-7-/-8~--5~----12~--10-8----------------------------------10~--8-------------|
G-------------------------------11~--9~--------9-11-12~---9~------------10-9\-------|
D-----------------------------------------------------------------------------\-----|
A-----------------------------------------------------------------------------------|
E-----------------------------------------------------------------------------------|

                     Interlude
E------------------|----------------------------------------------------------------|
B------------------|----------------------------------------------------------------|
G-------4-4-4~-\---|----------------------------------------------------------------|
D-4-4-4-4-4-4~-\-\-|----------------------------------------------------------------|
A-2-2-2-2-2-2~-\-\-|------.--.------.--------------.--.------.--------------.--.----|
E----------------\-|--2p0h2--5~-2~--0~--0h2~---2p0h2--5~-2~--0~--0h2~---2p0h2--5~-2~|
 ......|           |
E-----------------||
B-----------------||
G-----------------|| end
D-----------------||
A-----------------||
E-----------------||
                                        Guitar Solo (with Interlude riff many times)
E-----------------------------------------------------------------------------------|
B-------------------------------------|---------------------------------------------|
G-------------------------------------|---------------------------------------------|
D-------------------------------------|-------.-------------------------.-----------|
A--.--------------.--.------.---------|-----7h9--7/9~~------7h9-9/11~-\-7--9-7/9~~--|
E--0~--0h2~---2p0h2--5~-2~--0~--0h2~-----/9-----------------------------------------|

E-----------------------------------------------------------------------------------|
B-----------------------------------------------------------------------------------|
G--------------.----.------------------------9----13-h14p13p11-----11h14p13h14p13h14|
D--7h9-9/11----9--7/9--\7~------------7h9/11---11---------------14------------------|
A-----------12--------------9-9~~---9-----------------------------------------------|
E-----------------------------------------------------------------------------------|

E-----------------------------------------------------------------------------------|
B----------------------14-h17-b-(19)~--r17b(19)~-\--14-h17/19b(21)~-r19-\17~~~---14h|
Gp13h14p13p11--9/11~~---------------------------------------------------------------|
D-----------------------------------------------------------------------------------|
A-----------------------------------------------------------------------------------|
E-----------------------------------------------------------------------------------|

E--------------------------------------------------------------14------------14---.-|
B17-16~---------14h17-16~----------------------------14------------14-17b(19)----17-|
G--------14~---------------14-14----14-14~-----14/16----16b(18)-r-------------------|
D--------------------------------16---------16--------------------------------------|
A-----------------------------------------------------------------------------------|
E-----------------------------------------------------------------------------------|

E-------------------------------------------------------14------------14-16-17-/19b(|
B-(19)r17b(19)~~---(19)r17p15p14h15p14---------------14----14-17b(19)-r-------------|
G--------------------------------------16-14-16b(18)----r---------------------------|
D-----------------------------------------------------------------------------------|
A-----------------------------------------------------------------------------------|
E-----------------------------------------------------------------------------------|

E21)~~~-r19p17h19b(21)~~-r19b(21)~--r-\----21~~------/24~-22~-21~-19~~---.--/22~~-21|
B-------------------------------------------*----19~-------*---*---*----19----*----*|
G-------------------------------------------------*---------------------------------|
D-----------------------------------------------------------------------------------|
A-----------------------------------------------------------------------------------|
E-----------------------------------------------------------------------------------|
                                    *=Play these tones with the volume swell effect!

E~~--\16~~--14h16-16b(17)~--r16b(17)~~--r\-12h14h16p14~~---14-----------------------|
B------*---------------------------------------------------17b(19)r17p15--15~-15-17-|
G-----------------------------------------------------------------------------------|
D-----------------------------------------------------------------------------------|
A-----------------------------------------------------------------------------------|
E-----------------------------------------------------------------------------------|

E---------16-17~-17-19-19b(21)r19b(21)~~--(21)r19p17h19b(21)~~--r-\-----(26)r24b(26)|
B-19~--19-----------------------------------------------------------\---------------|
G-----------------------------------------------------------------------------------|
D-----------------------------------------------------------------------------------|
A-----------------------------------------------------------------------------------|
E-----------------------------------------------------------------------------------|

E~~-\---(26)r24b(26)~~~--\--(26)r24b(26)~---19b(21)-r19-17~~-----17-17~~------------|
B------------------------------------------------.----.-------19---------\-14-14-14-|
G--------------------------------------------------------------------------14-14-14-|
D-----------------------------------------------------------------------------------|
A-----------------------------------------------------------------------------------|
E-----------------------------------------------------------------------------------|

E--------------------14-------------------------------------------------------------|
B-----14-14-14----14-17b(19)-r------------------------------------------------------|
G-----14-14-14----14-------------14~-14b(16)r14----16--14~~-------------------------|
D-16~----------16~-----------16~----------------16----------16-14/16~~----7h9-9/11-7|
A----------------------------------------------------------------------/9-----------|
E-----------------------------------------------------------------------------------|

E--------------------------------14------------14--------------------14----------14-|
B--------------------------------17b(19)~~---r-17b(19)~~~--17-b-(19)----r17b(19)----|
G-----------------------------------------------------------------------------------|
D-9~~-7-----------------------------------------------------------------------------|
A-------9-7/9~--7-------------------------------------------------------------------|
E-----------------9p7~--7p5\2~~-----------------------------------------------------|

E-16-17p16--------------------------------------------------------------------------|
B-----.----14-b-(15)~~---(15)r14-12h15p14~~--17p14---------14h17p14---------14h17p14|
G--------------------------------------------------16b(18)--r-------16b(18)--r------|
D-----------------------------------------------------------------------------------|
A-----------------------------------------------------------------------------------|
E-----------------------------------------------------------------------------------|

E-----------------------------------------------------------------------------------|
B---------14h17p14---------14h17p14---------14h17p14---------14h17p14---------14h19p|
G-16b(18)--r-------16b(18)--r-------16b(18)--r-------16b(18)--r-------16b(18)--r----|
D-----------------------------------------------------------------------------------|
A-----------------------------------------------------------------------------------|
E-----------------------------------------------------------------------------------|

E-------------------------------------------------14------------------14------------|
Bp14---------14h17p14---------14h19p14---------14----17p14---------14----17p14------|
G----16b(18)--r-------16b(18)--r-------16b(18)--r----------16b(18)--r----------16p14|
D-----------------------------------------------------------------------------------|
A-----------------------------------------------------------------------------------|
E-----------------------------------------------------------------------------------|

E-----------------------------------------------------------------------------------|
B--------.--------------------------------------------------------------------------|
G-------16-14~~~-----------------------------------------------------------14-16-18-|
D-16p14--------------------------------------------------14-16-18-14-16-18----------|
A--------------------------------------14-16-17-14-16-17----------------------------|
E------------------\-14-16-17-14-16-17----------------------------------------------|
                    pm.....................................................|

                                                             Chorus (2)
E-----------------------------------------------------------------------------------|
B----------15-17-19b(20)~--r19b(20)r19-17~-p16~-17~~--\----|------------------------|
G-14-16-18----------------------------------------------\--|---------/-9------------|
D-------------Rhythm--5~---------------------7~--4~--------|---------/-9---7-/9-----|
A--------------Gtr:---5~---------------------6~------------|---------/-7---7--7-----|
E---------------------3~--------------------------------------0-0--0-------------0-0|
                                                             pm.....|           pm..

E-----------------------------------------------------------------------------------|
B-----------------------------------------------------------------------------------|
G----/-9----------------/-9-----------------/-9~---7~----------/-9----------------/-|
D----/-9---7-/9---------/-10--7-/10---------/-10~--7~----------/-9---7-/9---------/-|
A----/-7---7--7---------/-7---7---7---------/-7~---5~----------/-7---7--7---------/-|
E--0-------------0-0--0--------------0-0--0------------\0-0--0-------------0-0--0---|
 ...|           pm.....|            pm.....|          pm......|           pm.....|

                                  Guitar 1:
E------------------------------|----------------------------------------------------|
B------------------------------|----------------------------------------------------|
G--9---------/-9----------10~--|*----------/-9------------------/-9-----------------|
D--9---------/-10--7-/10--10~--|*----------/-9---7-/9-----------/-9---7-/9----------|
A--7---------/-7---7---7---8~--|-----------/-7---7--7-----------/-7---7--7----------|
E-----0-0--0-------------------|---0-0-0-0--------------0-0-0-0-------------0-0-0-0-|
     pm.....|                  |  pm......|            pm.......|          pm......||
                              E|--Guitar-2:-----------------------------------------|
                              B|-------5-7-/-8~--5~----12~--10-8--------------------|
                              G|*--------------------------------11~--9~--------9-11|
                              D|*---------------------------------------------------|
                              A|----------------------------------------------------|
                              E|----------------------------------------------------|


E-----------------------------------------------------------------------------------|
B-----------------------------------------------------------------------------------|
G-/-9--------------------/-9~---7~----------/-9------------------/-9----------------|
D-/-10---7-/10-----------/-10~--7~----------/-9---7-/9-----------/-9---7-/9---------|
A-/-7----7---7-----------/-7~---5~----------/-7---7--7-----------/-7---7--7---------|
E----------------0-0-0-0------------0-0-0-0--------------0-0-0-0--------------0-0-0-|
                pm......|          pm......|            pm......|           pm......|
E-----------------------------------------------------------------------------------|
B---------------10~--8------------------5-7-/-8~--5~----12~--10-8-------------------|
G--12~---9~------------11-9~--------------------------------------11~--9~---------9-|
D-----------------------------------------------------------------------------------|
A-----------------------------------------------------------------------------------|
E-----------------------------------------------------------------------------------|

E--------------------------------||
B--------------------------------||
G---/-9------------10~----------*|| repeat and fade out
D---/-10---7-/10---10~----------*||
A---/-7----7---7----8~--10-8-7---||
E-0------------------------------||
 ..|                             ||
E--------------------------------||
B------------------10~--8--------||
G-11-12~---9~-------------10-9\-*|| repeat and fade out
D-------------------------------*||
A--------------------------------||
E--------------------------------||

--------------------------------------------------------------------------------------

=======================
=TABLATURE EXPLANATION=
=======================

A.H. = Artificial Harmonic

pm..| = Palm mute

h = hammer on

p = pull off

/ = slide up

\ = slide down

~ = Vibrato

b() = Bend

x\ = Pick Slide

--------
--------
---12--- = Tremolo pick
----/---
----/---
----/---

---.---
--12--- = Staccato
-------
-------
-------

|     |
|     |
|*   *| = repeat from * to *
|*   *| 
|     |

LYRICS:
****************************************************************************

How long will I carry on?
I'm searching for the answer
Seems like I'm running inside of my head
No ends and no horizons
Is this the way it's got to be?
I need to find the answer
Is this a dream or is it reality?

Inside my head I hear a voice
"You can't get rid of the blood on your hands"
The time is here, you have to choose
Seek redemption, set your soul free

My way to go is hard to find
I'm caught in the middle
There's something far beyond the distant sky
Lead me to the bringer of life
They told me he's here inside my house
Where can I find him?
The sands of time are running, I need to go

Inside my head I hear a voice
"You can't get rid of the blood on your hands"
The time is here, you have to choose
Seek redemption, set your soul free

No time to lose,
Bring me to the holy cross
No time to lose,
I can't take the pain no more
No time to lose,
Bring me to the holy city
No time to lose,
Salvation's all I need

No time to lose,
Bring me to the holy cross
No time to lose,
I can't take the pain no more
No time to lose,
Bring me to the holy city
No time to lose,
Salvation's all I need

No time to lose,
Bring me to the holy cross
No time to lose,
I can't take the pain no more
No time to lose,
Bring me to the holy city
No time to lose,
Salvation's all I need

___________________________________________________________________
Colaboração: Leonardo Queiroga Ramirez - salvation@pop.com.br 

><> Supergospel.com.br - O portal da música gospel

 RECURSOS    Corrigir música | Versão para impressão | Indicar a um amigo | Compre este CD
Copyright - 2001 - 2018 Supergospel. Todos os direitos reservados.