Twitter do SuperGospel Facebook do SuperGospel

Matérias em destaque



The Countdown Has Begun (Tablatura de guitarra / violão)
Narnia


Tune down 1/2 step! 

  Intro (Gtr.1):
E-----------------------------------------------------------------------------------|
B----------------15b(17)--r15~--13~-15~----------------/15--------------------------|
G---14--16--14~---------------------------14--16--14~~-----16-b-(17)~-r-\-14~~--14--|
D-----------------------------------------------------------------------------------|
A-----------------------------------------------------------------------------------|
E-----------------------------------------------------------------------------------|

E-----------------------------------------------------------------------------------|
B---------15b(17)--r15~--13~-15~-------------------15--------------------------/-17-|
G-16--14--------------------------14--16--14--14~-----16-b-(17)~-r--\-14-16-14------|
D-----------------------------------------------------------------------------------|
A-----------------------------------------------------------------------------------|
E-----------------------------------------------------------------------------------|

E--------------------------------------------------------15~---------13-----------13|
B-15-13-15~------------------------------------/17-15-13-----15b(17)~---r15b(17)~---|
G------------\14-16-14--14~--16-13~~--14-16-14--------------------------------------|
D-----------------------------------------------------------------------------------|
A-----------------------------------------------------------------------------------|
E-----------------------------------------------------------------------------------|

                        Intro (Gtr.2):
E-----13----------------------------------------------------------------------------|
B-15~----15b(17)~~-\--|-------------------------------------------------------------|
G---------------------|---2----------------------2-------------/-7--------2---------|
D---------------------|---2----5----3----2--2----2----5----3---/-7-\-2~---2----5----|
A---------------------|---0----5----3----2--2----0----5----3---/-5-\-2~---0----5----|
E------------------------------3----1----0--0---------3----1---/-5-\-0~--------3----|

E-----------------------------------------------------------------------------------|
B-----------------------------------------------------------------------------------|
G---------/-9----2--------------/-7-------------------------------------------------|
D--3----2-/-9----2----5----3----/-7--\-2~-------------------------------------------|
A--3----2-/-7----0----5----3----/-5--\-2~--/0-0-0-0-0-0-0-0-0-0-0-0-----------------|
E--1----0-------------3----1----/-5--\-0~---------------------------\3-3-3-3-3-3-3-3|
                                          pm........................................

E-----------------------------------------------------------------------------------|
B-----------------------------------------------------------------------------------|
G-----------------------------------------------------------------------------------|
D-----------------------------------------------------------------------------------|
A----------------------------------------------------------------------------------/|
E-3-3-3-3-3-3-3-3\1-1-1-1-1-1-1-1-1-1-1-1-1-1-1-1-\0-0-0-0-0-0-0-0-0-0-0-0-0-0-0-0--|
 ...................................................................................

E-----------------------------------------------------------------------------------|
B-----------------------------------------------------------------------------------|
G-----------------------------------------------------------------------------------|
D-----------------------------------------------------------------------------------|
A-0-0-0-0-0-0-0-0-0-0-0-0-0-0-0-0---------------------------------------------------|
E---------------------------------\3-3-3-3-3-3-3-3-3-3-3-3-3-3-3-3\1-1-1-1-1-1-1-1-1|
 ...................................................................................

                                          (end Intro)   Verse 1
E----------------------------------------------------||-----------------------------|
B----------------------------------------------------||-----------------------------|
G----------------------------------------------------||---2---/-5--4--2--4~-2~------|
D----------------------------------------------------||---2-------------------------|
A---------------/-5-5-5-5-5-5-5-5-/7-7-7-7-7-7-7-7---||---0---/-3--2--0--2~-0~--3-2-|
E-1-1-1-1-1-1-1--------------------------------------||-----------------------------|
 .................................................|

E-----------------------------------------------------------------------------------|
B-----------------------------------------------------------------------------------|
G-------------------------2---/-5--4--2--4~-2~---------------\-2-----------------6--|
D-------------------------2----------------------------------\-2-----------------7--|
A-0----0-2----------------0---/-3--2--0--2~-0~--3-2-0----0-2-\-0--0-0-0-0-0-0-0--4--|
E---4~-----0~-1-3-2~-4~-------------------------------4~----------------------------|
                                                                 pm............|
                   Bridge
E-----------------------------------------------------------------------------------|
B----------------|---3--------------------------------------------------------------|
G----------------|*--2--------------------------------------------------------------|
D----------------|*--0-0-0-0-0-0-0-0-0-0-0-0-0-0-0-0-/8p0-0-7p0-0-6p0-0-7p0-0-------|
A-0-0-0-0-0-0-0--|-------------------------------------------------------------\0-0-|
E-----------------------------------------------------------------------------------|
 pm............|      pm............................|  pm..| pm..| pm..| pm.........

E-----------------------------------------------------------------------------------|
B-----------------------------------------------------------------------------------|
G-----------------------------------------------------------------------------------|
D-----------------------------8~----7~----6~----7~----/5----------------------------|
A-0-0-0-0-0-0-0-0-0-0-0-0-0-0---0-0---0-0---0-0---0-0-------------------------------|
E--------------------------------------------------------3-3-3-3-3-3-3-3-3-3-3-3-3-3|
 ............................| pm..| pm..| pm..| pm..|  pm..........................
                                        ____________________________________________
                                       |1.                
E--------------------------------------|--------------------------------------------|
B--------------------------------------|--------------------------------------------|
G--------------------------------------|--------------------------------------------|
D--------------------------------------|--------------------------------------------|
A--------------------------------------|--------------------------------------------|
E-3-3-/6-6-6-6-6-6-6-6-6-6-6-6-6-6-6-6-|-\5-5-5-5-5-5-5-5-5-5-5-5-5-5-5-5-5-5-5-5-5-|
 ...................................................................................
 __________________________________ ________________________________________________
                                   |2.
E----------------------------------|------------------------------------------------|
B----------------------------------|------------------------------------------------|
G---------------------------------*|-------------------------------------------8h11p|
D--------------3h5p3--------------*|--------------------------------------7h10------|
A--------4h5h7-------7p5p4---------|-/5-5-5-5-5-5-5-5-5-5-5-5-5-5-5-5-6h9-----------|
E-\3h5h6-------------------6p5p3---|------------------------------------------------|
                                     pm..............................|
 ______________________________
                               |  Chorus
E------------------------------||---------------------------------------------------|
B------------------------------||---------------------------------------------------|
Gp8----------------------------||--2------------------------------------------------|
D---10p7-----------------------||--2------------------------------------------------|
A--------9p6--------5h7p5------||--0-0-0-0-0-0-0-0-0-0-0-0-0-0-0-0------------------|
E------------\0h4h7-------8p7--||----------------------------------\-3-3-3-3-3-3-3-3|
                                    pm..............................................

E-----------------------------------------------------------------------------------|
B-----------------------------------------------------------------------------------|
G-----------------------------------------------------------------------------------|
D-----------------------------------------------------------------------------------|
A----------------------------------------------------------------------------------/|
E-3-3-3-3-3-3-3-3\1-1-1-1-1-1-1-1-1-1-1-1-1-1-1-1-\0-0-0-0-0-0-0-0-0-0-0-0-0-0-0-0--|
 ...................................................................................

E-----------------------------------------------------------------------------------|
B-----------------------------------------------------------------------------------|
G-----------------------------------------------------------------------------------|
D-----------------------------------------------------------------------------------|
A-0-0-0-0-0-0-0-0-0-0-0-0-0-0-0-0---------------------------------------------------|
E---------------------------------\3-3-3-3-3-3-3-3-3-3-3-3-3-3-3-3-\1-1-1-1-1-1-1-1-|
 ...................................................................................

                                                                      Bridge (2)
E-----------------------------------------------------------------------------------|
B-----------------------------------------------------|-------------|---3-----------|
G-----------------------------------------------------|---Verse-2---|*--2-----------|
D-----------------------------------------------------|-------------|*--0-0-0-0-0-0-|
A-----------------/5-5-5-5-5-5-5-5-/-7-7-7-7-7-7-7-7--|-------------|---------------|
E-1-1-1-1-1-1-1-1-------------------------------------------------------------------|
 ...................................................|                    pm.........

E-----------------------------------------------------------------------------------|
B-----------------------------------------------------------------------------------|
G-----------------------------------------------------------------------------------|
D-0-0-0-0-0-0-0-0-0-0-/8p0-0-7p0-0-6p0-0-7p0-0----------------------------------8~--|
A-----------------------------------------------0-0-0-0-0-0-0-0-0-0-0-0-0-0-0-0---0-|
E-----------------------------------------------------------------------------------|
 ....................|  pm..| pm..| pm..| pm...................................| pm.

E-----------------------------------------------------------------------------------|
B-----------------------------------------------------------------------------------|
G-----------------------------------------------------------------------------------|
D---7~----6~----7~----\5------------------------------------------------------------|
A-0---0-0---0-0---0-0---------------------------------------------------------------|
E------------------------3-3-3-3-3-3-3-3-3-3-3-3-3-3-3/6-6-6-6-6-6-6-6-6-6-6-6-6-6-6|
 ..| pm..| pm..| pm..|  pm..........................................................
     _____________________________________________________________________ _________
    |1.                                                                   |2.
E---|---------------------------------------------------------------------|---------|
B---|---------------------------------------------------------------------|---------|
G---|--------------------------------------------------------------------*|---------|
D---|--------------------------------------------------3h5p3-------------*|---------|
A---|--------------------------------------------4h5h7-------7p5p4--------|-/5-5-5-5|
E-6-|-\5-5-5-5-5-5-5-5-5-5-5-5-5-5-5-5-5-5-3h5h6-------------------6p5p3--|---------|
 .........................................|                                 pm......
 _________________________________________________
                                                  |               Guitar Solo
E-------------------------------------------------||-----------------------------13-|
B-----------------------------7~-----7~-----------||------------|-/-13~-13-15-16----|
G-----------------------------8~-----8~-----------||---Chorus---|-------------------|
D-----------------------------7~-----7~-----------||----(x2)----|-------------------|
A-5-5-5-5-5-5-5-5-5-5-5-5-----6~-----6~-/7-7-7-7--||------------|-------------------|
E--------------------------0------0---------------||--------------------------------|
 ............................|   pm    pm.......|

E-15-16-15-------------------------------13-15-16-15----------/15h16p15p13----------|
B----------15-12-15------/-13~--13-15-16-------------15-12-15--------------15p16p13\|
G-------------------12~-------------------------------------------------------------|
D-----------------------------------------------------------------------------------|
A-----------------------------------------------------------------------------------|
E-----------------------------------------------------------------------------------|

E----------------13-15-16-15------------------------------13-15-16-15---------------|
B12h13~-13-15-16-------------15-12-15-----/-13~--13-15-16-------------15-12-15-/20~-|
G-------------------------------------12~-------------------------------------------|
D-----------------------------------------------------------------------------------|
A-----------------------------------------------------------------------------------|
E-----------------------------------------------------------------------------------|

  with Wah Wah:
E-----------------------------------------------------------------------------------|
B-\15p12---------12h15p12---------12h15p12---------12h15p12---------12h15p12--------|
G--------14b(16)-----r----14b(16)-----r----14b(16)-----r----14b(16)-----r----14b(16)|
D-----------------------------------------------------------------------------------|
A-----------------------------------------------------------------------------------|
E-----------------------------------------------------------------------------------|

E-----------------------------------------------------------------------------------|
B-12h15p12---------12h15p12---------12h15p12---------12h15-/17p13----13h17p13----13h|
G-----r----14b(16)-----r----14b(16)-----r----14b(16)-----r--------16----------16----|
D-----------------------------------------------------------------------------------|
A-----------------------------------------------------------------------------------|
E-----------------------------------------------------------------------------------|

E-----------------------------------------------------------------------------------|
B17p13----13h17p13----13h17p13----13h17p13----13h17p13----13h17-/-18-17-15-18-17-15-|
G------16----------16----------16----------16----------16---------------------------|
D-----------------------------------------------------------------------------------|
A-----------------------------------------------------------------------------------|
E-----------------------------------------------------------------------------------|

E----------------------------------------------------------------------------------/|
B-18-17-15-18-17-15-18-17-15-18-17-15-18-17-15-18-17-15-18-17-15-18-17-15-18-17-15--|
G-----------------------------------------------------------------------------------|
D-----------------------------------------------------------------------------------|
A-----------------------------------------------------------------------------------|
E-----------------------------------------------------------------------------------|

E-/16p13h12h13h16p13h12h13h16p13h12h13h16p13h12h13h16p13h12h13h16p13h12h13h16p13h12h|
B-----------------------------------------------------------------------------------|
G-----------------------------------------------------------------------------------|
D-----------------------------------------------------------------------------------|
A-----------------------------------------------------------------------------------|
E-----------------------------------------------------------------------------------|

Eh13h16p13h12-----------------------------------------------------------------------|
B-------------15-13-12-------15b(17)--r15p13/15~--13h15p13p12-13-15-12-13~-12h13p12-|
G----------------------14~~---------------------------------------------------------|
D-----------------------------------------------------------------------------------|
A-----------------------------------------------------------------------------------|
E-----------------------------------------------------------------------------------|

E--------------------------------------------------------15~------17-19-19b(20)~-r19|
B----12-13-------------------------------15b(17)--r15p13-----\-17--.--.-------------|
G-14-------14-14~-16-14-13~--14h16p14~~-------------------------.-------------------|
D-----------------------------------------------------------------------------------|
A-----------------------------------------------------------------------------------|
E-----------------------------------------------------------------------------------|

                                   Verse 3
E-17-19h20p19~-15-17-19-15/20~~--\--------------------------------------------------|
B------trill---------------------|-\------------------------------------------------|
G--------------------------------|--------------------------------------------------|
D--------------------------------|---5-5-5-5-5-5-5-5-5-5-5-5-5-5-5-5-/-8-8-8-8-8-8-8|
A--------------------------------|---3-3-3-3-3-3-3-3-3-3-3-3-3-3-3-3-/-6-6-6-6-6-6-6|
E------------------------------------3-3-3-3-3-3-3-3-3-3-3-3-3-3-3-3-/-6-6-6-6-6-6-6|
                                    pm..............................................

E-----------------------------------------------------------------------------------|
B-----------------------------------------------------------------------------------|
G-----------------------------------------------------------------------------------|
D-8-8-8-8-8-8-8-8-8-\-5-5-5-5-5-5-5-5-5-5-5-5-5-5-5-5-/-7-7-7-7-7-7-7-7-7-7-7-7-7-7-|
A-6-6-6-6-6-6-6-6-6-\-5-5-5-5-5-5-5-5-5-5-5-5-5-5-5-5-/-5-5-5-5-5-5-5-5-5-5-5-5-5-5-|
E-6-6-6-6-6-6-6-6-6-\-3-3-3-3-3-3-3-3-3-3-3-3-3-3-3-3-/-5-5-5-5-5-5-5-5-5-5-5-5-5-5-|
 ...................................................................................

E-----------------------------------------------------------------------------------|
B-----------------------------------------------------------------------------------|
G---------------------------------------------------------------------------/-5~----|
D-7-7-7-\-3-3-3-3-3-3-3-3-3-3-3-3-3-3-3-3-/-5-5-5-5-5-5-5-5-5-5-5-5-5-5-5-5-/-5~-\-5|
A-5-5-5-\-3-3-3-3-3-3-3-3-3-3-3-3-3-3-3-3-/-5-5-5-5-5-5-5-5-5-5-5-5-5-5-5-5-/-3~-\-6|
E-5-5-5-\-1-1-1-1-1-1-1-1-1-1-1-1-1-1-1-1-/-3-3-3-3-3-3-3-3-3-3-3-3-3-3-3-3-/-3~-\-3|
 ..........................................................................|

E-----------------------------------------------------------------------------------|
B--------------------------------------------------------------------|--------------|
G--------------------------------/--4~-----4~-----7~--7~--/--9~--9~--|----Chorus----|
D~--5---5---/-8~-----7~----7~----/--5~-----4~-----7~--7~--/--9~--9~--|-----(x2)-----|
A~--5---5---/-8~-----8~---\7~----/--2~-----2~-----5~--5~--/--7~--7~--|--------------|
E~--3---3---/-6~-----5~----5~---------------------5~--5~--/--7~--7~-----------------|

  Chorus (2)
E-----------------------------------------------------------------------------------|
B-----------------------------------------------------------------------------------|
G-----------------------------------------------------------------------------------|
D-----------------------------------------------------------------------------------|
A-----------------------------------------------------------------------------------|
E--6h8-8-8-8-8-8-8-8-8-8-8-8-8-8-8--6h8-8-8-8-8-8-8-8-8-8-8-8-8-8-8--6h8-8-8-8-8-8-8|

E-----------------------------------------------------------------------------------|
B-----------------------------------------------------------------------------------|
G-----------------------------------------------------------------------------------|
D-----------------------------------------------------------------------------------|
A-----------------------------------------------------------------------------------|
E-8-8-8-8-8-8-8-8--6h8-8-8-8-8-8-8\7-7-7-7-7-7-7-7--6h8-8-8-8-8-8-8-8-8-8-8-8-8-8-8-|

E-----------------------------------------------------------------------------------|
B-----------------------------------------------------------------------------------|
G-----------------------------------------------------------------------------------|
D-----------------------------------------------------------------------------------|
A-/-5-5-5-5-5-5-5-5-5-5-5-5-5-5-5-5-------------------------------------------------|
E-/-5-5-5-5-5-5-5-5-5-5-5-5-5-5-5-5-\-4-4-4-4-4-4-4-4-4-4-4-4-4-4-4-4-\1-1-1-1-1-1-1|
   pm...............................................................................

E-----------------------------------------------------------------------------------|
B-----------------------------------------------------------------------------------|
G-----------------------------------------------------------------------------------|
D-----------------------------------------------------------------------------------|
A---------------------/-3-3-3-3-3-3-3-3-3-3-3-3-3-3-3-3-/-5-5-5-5-5-5-5-5-5-5-5-5-5-|
E-1-/-3-3-3-3-3-3-3-3-----------------------------------/-5-5-5-5-5-5-5-5-5-5-5-5-5-|
 ...................................................................................

E-----------------------------------------------------------------------------------|
B-----------------------------------------------------------------------------------|
G-----------------------------------------------------------------------------------|
D-----------------------------------------------------------------------------------|
A-5-5-5--------------------------------------------------------------------/-3-3-3-3|
E-5-5-5-\-4-4-4-4-4-4-4-4-4-4-4-4-4-4-4-4-\3-3-3-3-3-3-3-3-3-3-3-3-3-3-3-3----------|
 ...................................................................................

E-----------------------------------------------------------------------------------|
B-----------------------------------------------------------------------------------|
G-----------------------------------------------------------------------------------|
D-----------------------------------------------------------------------------------|
A-3-3-3-3-3-3-3-3-3-3-3-3-/-5-5-5-5-5-5-5-5-5-5-5-5-5-5-5-5-------------------------|
E-------------------------/-5-5-5-5-5-5-5-5-5-5-5-5-5-5-5-5-\-4-4-4-4-4-4-4-4-4-4-4-|
 ...................................................................................

E-----------------------------------------------------------------------------------|
B-----------------------------------------------------------------------------------|
G----------------------------------------------/5p3-----3---------------------------|
D---------------------------------------------------6p5---6p5p3-6p5p3---5p3---------|
A---------------------------------------------------------------------6-----6p5\3h5h|
E-4-4-4-4-4-\1-1-1-1-1-1-1-1-/3-3-3-3-3-3-3-3---------------------------------------|
 ............................................|

E---------------------------||
B---------------------------||
G-----------------3h5~--\---|| end
D---3h5-----3h5h6-----------||
Ah6-----5h6-----------------||
E---------------------------||


--------------------------------------------------------------------------------------

  Rhythm Guitar during Guitar Solo
E-----------------------------------------------------------------------------------|
B-----------------------------------------------------------------------------------|
G-----------------------------------------------------------------------------------|
D-----------------------------------------------------------------------------------|
A---3-3-3-3-3-3-3-3/6-6-6-6-6-6-6-6-------------------------------------------------|
E-----------------------------------3-3-3-3-3-3-3-3-3-3-3-3-3-3-3-3/4-4-4-4-4-4-4-4-|
  pm................................................................................

E-----------------------------------------------------------------------------------|
B-----------------------------------------------------------------------------------|
G-----------------------------------------------------------------------------------|
D---------------------------------5h6p5---------------------------------------------|
A---------------------------------------6-5-3\2/3-3-3-3-3-3-3-3/6-6-6-6-6-6-6-6-----|
E\1-1-1-1-1-1-1-1/3-3-3-3-3-3-3-3-----------------------------------------------3-3-|
 ................................|             pm...................................

E-----------------------------------------------------------------------------------|
B-----------------------------------------------------------------------------------|
G-----------------------------------------------------------------------------------|
D-----------------------------------------------------------------------------------|
A-----------------------------------------------------------------------------------|
E-3-3-3-3-3-3-3-3-3-3-3-3-3-3/4-4-4-4-4-4-4-4\1-1-1-1-1-1-1-1/3-3-3-3-3-3-3-3-3-3-3-|
 ...................................................................................

                                                                                 x3
E-----------------------------------------------------------------------------------|
B-------------|---------------------------------------------------------------------|
G-------------|*-------------------------------------------------------------------*|
D-------------|*-------------------------------------------------------------------*|
A-------------|---------------------------------------------------------------------|
E-3-3-3-3-3-------0-0-0-0-0-0-0-0-0-0-0-0-0-0-0-0-0-0-0-0-0-0-0-0-0-0-0-0-0-0-0-0---|
 ..........|     pm..............................................................|

E-----------------------------------------------------------------------------------|
B-----------------------------------------------------------------------------------|
G-------------------------------------------------------------------/-2~------------|
D-------------------------------------------------------------------/-2~---5----3---|
A-------------------------------------------------------------------/-0~---5----3---|
E--0-0-0-0-0-0-0-0-0-0-0-0-0-0-0-0-0-0-0-0/2-2-2-2/4-4-4-4\0-0-0-0---------3----1---|
  pm..............................................................|

E----------------------------------||
B----------------------------------||
G-----/2--------------/-7~----9~---|| end
D-2---/2----5----3----/-7~----9~---||
A-2---/0----5----3----/-5~----7~---||
E-0---------3----1----/-5~----7~---||

--------------------------------------------------------------------------------------

=======================
=TABLATURE EXPLANATION=
=======================

A.H. = Artificial Harmonic

pm..| = Palm mute

h = hammer on

p = pull off

/ = slide up

\ = slide down

~ = Vibrato

b() = Bend

x\ = Pick Slide

--------
--------
---12--- = Tremolo pick
----/---
----/---
----/---

---.---
--12--- = Staccato
-------
-------
-------

|     |
|     |
|*   *| = repeat from * to *
|*   *| 
|     |

LYRICS:
**********************************************************************

I leave today
Into the eyes of death I smile
No turning back now
For power and glory and justice for all

Fight for the truth - so vague, so strong
Bend every rule - so pure, so wrong
Pray for the soldier, in this cause we stand
Blinded we aim - denying history
We shall proclaim - our sweet victory
Every nation bows at our feet

We fight to find a meaning, to see them falling down
Tear down the walls and build them higher and higher.

I won't go back
Never again will I betray
My land or my people
Lift my eyes to the horizon
Borders to conquer and banners to burn

Fight for the truth - so vague, so strong
Bend every rule - so pure, so wrong
Pray for the soldier, in this cause we stand
Blinded we aim - denying history
We shall proclaim - our sweet victory
Every nation bows at our feet

We fight to find a meaning, to see them falling down
Tear down the walls and build them higher and higher.
We've fought trough endless battles, but now we're falling down
Tear down our minds and make them sronger and colder

Don't run from the pain
Drowning in a memory of the times we miss the most
One day this will all be gone
Anybody smells my fear, a heart that's turned to ice
Who could tell that this would be the end. It's in their lies
Hide, for the countdown has begun

We fight to find a meaning, to see them falling down
Tear down the walls and build them higher and higher.
We've fought trough endless battles, but now we're falling down
Tear down our minds and make them stronger and colder

___________________________________________________________________
Colaboração: Leonardo Queiroga Ramirez - salvation@pop.com.br 

><> Supergospel.com.br - O portal da música gospel

 RECURSOS    Corrigir música | Versão para impressão | Indicar a um amigo | Compre este CD
Copyright - 2001 - 2018 Supergospel. Todos os direitos reservados.