Twitter do SuperGospel Facebook do SuperGospel

Matérias em destaque



Shelter Through The Pain (Tablatura de guitarra / violão)
Narnia


INTRO: (guitarra)

e------------------------|
b------16-14-------------|
G------------16-15-13----|
D--13-----------------13-|
A------------------------|
E------------------------|

e------------------------|
b------16-14-------------|
G------------16-15-13----|
D---------------------14-|
A------------------------|
E------------------------|

e------------------------|
b------16-14-------------|
G------------16-15-13----|
D---------------------15-|
A------------------------|
E------------------------|

e-----------------------|
b--------12-14-12-12----|
G--13-15-------------15-|
D-----------------------|
A-----------------------|
E-----------------------|

___________________________________________________________________
Colaboração: Renan Silva Lira - renanlira@bol.com.br 

><> Supergospel.com.br - O portal da música gospel

 RECURSOS    Corrigir música | Versão para impressão | Indicar a um amigo | Compre este CD
Copyright - 2001 - 2018 Supergospel. Todos os direitos reservados.