Twitter do SuperGospel Facebook do SuperGospel

Matérias em destaque



Apostasia (Tablatura de guitarra / violão)
Oficina G3


Solo: (03:01)

    
E||---------------------------------------------------------------------------|
B||---------------------------------------------------------8-9-9b11~~-9-8-6~-|
G||-7-10-7-10b12-10r11-10b12-10r11-10b12~--------7-8~-7-8-9-------------------|
D||----------------------------------------7-8-9------------------------------|
A||---------------------------------------------------------------------------|
E||---------------------------------------------------------------------------|

E||---------------------T--T-------T--T-------T--T--------------------
B||-------8-9-11-11b13~-18/16--11r-16/15--11--13/15----T--T-----------
G||-7-8-9-------------------------------------------12-15/13-T--T-----
D||----------------------------------------------------------15/13-T--
A||----------------------------------------------------------------15-
E||-------------------------------------------------------------------

E||----------------------------------10/13~-13/15-11~--15b16-16~~--------------13-15-13-|
B||----------------------------8-9-8-------------------------------------15-16----------|
G||----------------------------------------------------------------15-17----------------|
D||-T-----------------------------------------------------------------------------------|
A||-13~--13/10~-10/8~--8-6-8~-----------------------------------------------------------|
E||-------------------------------------------------------------------------------------|

E||-------8/11~--11-10-8------13-11-10-------15-13-11-------16-15-13-------18-16-15-------|
B||-8-9-8----------------11-9----------13-11----------15-13----------16-15----------18-16-|
G||---------------------------------------------------------------------------------------|
D||---------------------------------------------------------------------------------------|
A||---------------------------------------------------------------------------------------|
E||---------------------------------------------------------------------------------------|

E||-18b20-18r-18b20~~~~~-----22b23~~~~~~~~~~~~~~------|| Depois do solo, volta no refrão: PARE DE PEDIR......... 
B||---------------------------------------------------|| 
G||---------------------------------------------------|| 
D||---------------------------------------------------||
A||---------------------------------------------------||
E||---------------------------------------------------||

___________________________________________________________________
Colaboração: Mauricio J.Frigo - frigo.r@terra.com.br 

><> Supergospel.com.br - O portal da música gospel

Também para esta música: Cifra

 RECURSOS    Corrigir música | Versão para impressão | Indicar a um amigo | Compre este CD
Copyright - 2001 - 2018 Supergospel. Todos os direitos reservados.