Twitter do SuperGospel Facebook do SuperGospel

Matérias em destaque



Glória Inst. (Tablatura de guitarra / violão)
Oficina G3


Ele usa duas vezes técnicas de digitação,
para facilitar assista o dvd "O tempo"

E||-------------------|-------------------|
B||-------------------|-------------------|
G||-------------------|-------------------|
D||-------------------|-------------------|
A||-------------------|--2----------------|
E||--0h---------------|--0----------------|


                                         
------------------|---------------------|
------------------|---------------------|
------------------|--4---9--------2/-1--|
------------------|---------------------|
------------------|---------------------|
------------------|---------------------|


                          
-------------------------|
-------------------------|
--4-------------9---11h9-|
--------------9---9------|
-------------------------|
-------------------------|


                             
----------------------------|
----------------------------|
--11b---14h---11r-11b-16t---|
----------------------------|
----------------------------|
----------------------------|





                                    
-----------------------------------|
-----------------------------------|
--11--11--20t---11-11-9---11b11h9--|
------------------------9----------|
-----------------------------------|
-----------------------------------|
                                              
----------------------|----------------------|
----------------------|----------------------|
--11b-11b-------------|--6-------------6--8--|
----------------------|-------------6--------|
----------------------|----------------------|
----------------------|----------------------|


                                   
----------------------------------|
----------------------------------|
--8r---8-6-8r-8h6---8r-8h6-----8r-|
------------------9--------9-6----|
----------------------------------|
----------------------------------|


                              
-----------------------------|
-----------------------------|
--8-6------------------------|
------9-6--11----11--9--7----|
-----------------------------|
-----------------------------|


                                        
---------------------------------------|
---------------------------------------|
---------------------6-----------------|
--9--14/-7--6--6h7h9---9h6h7h9h7h6-----|
-----------------------------------9h7h|
---------------------------------------|


                            
---------------------------|
---------------------------|
---------------------------|
---------------------------|
--9--7h6-------------------|
---------9h7h9h-7----------|


                                                  
--------------------------------------------------
--------------------------------------------------
------------------------6-8-9-8-6-9-11-9-8-8-9-11-
------------------6-7-9---------------------------
--------6-7-9-7-9---------------------------------
--5-7-9-------------------------------------------




                                                  
----------9-11-12----------11-12-14----------12-14
--9-10-12---------10-12-14----------12-14-16------
--------------------------------------------------
--------------------------------------------------
--------------------------------------------------
--------------------------------------------------


                                                  
-----------16-17-19-19-17-16-------------------16-
--16-17-19-------------------19-19-17-16-17-19----
--------------------------------------------------
--------------------------------------------------
--------------------------------------------------
--------------------------------------------------


                                                  
--------------------------------------------------
--16----------------------------------16-17-17r-17
-----18-16-14----------------14-16-18-------------
--------------16-14-14-16-18----------------------
--------------------------------------------------
--------------------------------------------------
                                           
--------17--------------------------------|
--19b-------19r19-17-------17b------17-16-|
---------------------18-16----------------|
------------------------------------------|
------------------------------------------|
------------------------------------------|
                                                 
-----------16-17h16-----------------------------|
--17----17----------17--------------------------|
-----16----------------16-14-13-14-16-14-13-----|
---------------------------------------------16-|
------------------------------------------------|
------------------------------------------------|

                                                  
-----------12-16h12-14h12----12-------12----------
--------------------------------------------------
--13-14-16----------------16----14-16----16-14----
-----------------------------------------------16-
--------------------------------------------------
--------------------------------------------------



                                                  
-----------11-14h11-12h11----11-------11----------
--------------------------------------------------
--11-13-14----------------14----13-14----14-13-11-
--------------------------------------------------
--------------------------------------------------
--------------------------------------------------


                                                  
----------9-12h9h11h9----9-------9---------------|
-------------------------------------------------|
--9-11-13-------------13---11-13---13-11-9-------|
-------------------------------------------13----|
-------------------------------------------------|
-------------------------------------------------|


                                                  
-----------------11-14h11----------11-14-19h16----
--------------12----------12----12-------------17-
---------8h11----------------11-------------------
-------9------------------------------------------
--7h11--------------------------------------------
--------------------------------------------------


                                                  
--------11-14h11----------------------------------
-----12----------12-----------------------9h10h12-
--11----------------11/8h6h8h9-8-6-8-9-11---------
--------------------------------------------------
--------------------------------------------------
--------------------------------------------------
                                     
------------------------------------|
--17t---9h-10h-12--19t---9--10--12--|
------------------------------------|
------------------------------------|
------------------------------------|
------------------------------------|
                                  
----------------------------------|
--17r-12--17h-12--19r-12--19h-12--|
----------------------------------|
----------------------------------|
----------------------------------|
----------------------------------|


                                          
-----------------------------------------|
--17t-12--17h-12--16h17/16-12h10h9-------|
-----------------------------------18/16h|
-----------------------------------------|
-----------------------------------------|
-----------------------------------------|


                                             
--------------------------------------------|
--------------------------------------------|
--11h9-16/15t-11-16/15t-11--11h9------------|
---------------------------------13-11h9-9--|
--------------------------------------------|
--------------------------------------------|


                                   
----------9----------9------------|
--12b-------12-9-12b---12-9-12b---|
----------------------------------|
----------------------------------|
----------------------------------|
----------------------------------|


                                   
----------------------------------|
---12r12h10-12----10----9-10-9----|
-------------------------------11-|
----------------------------------|
----------------------------------|
----------------------------------|

                                   

   
---------------------------------------|
--9h-10h-12----14/12-------17--19--17--|
------------------------16-------------|
---------------------------------------|
---------------------------------------|
---------------------------------------|


                                     
------------------------16-19-------|
--19b---19b-19b-19b-19--------19~---|
------------------------------------|
------------------------------------|
------------------------------------|
------------------------------------|
                                           
------------------------------------------|
--19b-19b-19b-19b---19r19-17-19r19-17-17--|
------------------------------------------|
------------------------------------------|
------------------------------------------|
------------------------------------------|
                             
----------------------------|
--17------------14--17--17--|
----------------------------|
----------------------------|
----------------------------|
----------------------------|


                             
----------------------------|
--17b-----17b-17b-17b-------|
----------------------------|
----------------------------|
----------------------------|
----------------------------|


                             
----------------------------|
--17------16h14-16r-16/-----|
----------------------------|
----------------------------|
----------------------------|
----------------------------|




                               
------------------------------|
------------------17--19--17--|
--16-----------16-------------|
------------------------------|
------------------------------|
------------------------------|


                               
----------16-19---------------|
--19b-----------19b-----19-17-|
------------------------------|
------------------------------|
------------------------------|
------------------------------|


                                                  
------------------------------------------------
--19--19--17--17--16-17-16/14-16--14-16-14/12-14--
--------------------------------------------------
--------------------------------------------------
--------------------------------------------------
--------------------------------------------------



                                           
------------------------------------------|
--12--10h12h10/9-10h9h10/9----------------|
---------------------------11-9-8/---9----|
------------------------------------------|
------------------------------------------|
------------------------------------------|


                                               
--------12----12---------|--5----------------||
--12----------------5----|-------------------||
-------------------------|-------------------||
-------------------------|-------------------||
-------------------------|-------------------||
-------------------------|-------------------||

___________________________________________________________________
Colaboração: Durval de Almeida Pinto Filho - durval_almeida@hotmail.com 

><> Supergospel.com.br - O portal da música gospel

 RECURSOS    Corrigir música | Versão para impressão | Indicar a um amigo | Compre este CD
Copyright - 2001 - 2018 Supergospel. Todos os direitos reservados.