Twitter do SuperGospel Facebook do SuperGospel

Matérias em destaque



Preciso voltar (Tablatura de baixo)
Oficina G3


INTRO
                                       
G|-------------------|------------------|-10*-|* - ESSA NOTA DEVE SER FEITA COMO UMA PUXADA NA HORA DA VIRADA 
D|-------------------|------------------|-----|    DA BATEIRA PARA PARECER COM UMA PUXADA DE SLAP.
A|-------------------|------------------|-----|
E|--1-1/5--5-5-\3-3--|--1-1/5--5-5-\3-3-|-----|

      ME VEJO PENSANDO NOS DIAS QUE EU PERDI            TRILHANDO CAMINHOS QUE EU NÃO DEVERIA PROSSEGUIR

G|-------------------------------------------------------------------------------------------------------|
D|-------------------------------------------6/8-6-------------------------------------------------------|
A|--------------------------------3/7---7------------7-8-------------------------------------------------|
E|---1--1/5--5--5\3----3------------------------------------7\5-5----------------5\3------3--------G-----|

        VIVENDO MOMENTOS QUE NÃO TROXERAM  PARA MIM     A PAZ  E A VIDA QUE UM DIA EU CONHECI

G|------------------------------------------------|------------------------------------------------------|
D|------------------------------------------------|------------------------------------------------------|
A|-5/8-8------------------------------------------|------------------------------------------------------|
E|--------7\5-5----------5\3--3--------3-2-0------|-0-2-1--1/5-5--------5\3------3-----3----3/-----------|

CORO

    PRECISO VOLTAR AOS BRAÇOS DE QUEM QUER       CUIDAR DE MIM                 UM SORRISO VAI SE ABRIR

G|------------------------------------------------------------|---------------------------------------
D|------------------------------------------------------------|--7/9-7-6------------------------------
A|-5----------1-2---2-----------3/5-5-------------4-5-7--E----|-----------9-7--5----------------1---2-
E|---5-4-2--------------3-----5---------7-5-4-2---------------|-------------------5-4-2----4----------

      NOS LÁBIOS DE QUEM QUER           CUIDAR DE MIM       RIFF 1 

G|---------------------------------------------------| G|----------------| RIFF 1 - ESSE RIFF SÓ DEVE SER FEITO 
D|--------------------------7/9-7-6------------------| D|---7/9-7-6------|          QUANDO O CORO FOR SER REPITIDO
A|-2-1------------2-4-5-------------7-9-10-9-7-------| A|-E---------9-7\-|          E ANTES DOS INTERLÚDIOS 2 E 3
E|-----5-2-3-----------------------------------------| E|----------------|          E ANTES DO FINAL DA MÚSICA.

INTERLÚDIO 1 

G|--------|
D|--------|
A|--6-7-8-|
E|--------|

 EU SEI VOCÊ NUNCA ME DEIXOU PARTIR, CUIDANDO MESMO QUE EU ESTIVESSE LONGE (NÃO TOCAR NESSA PARTE)
 
(ESTIVESSE LONGE)     AGORA EU VEJO O AMIGO VERADEIRO   O ABRIGO, JESUS O FILHO DE DEUS

G|-8-9-------------|---------------------------|------------------------------------------------|
D|-----10-9-7------|---------------------------|------------------------------------------------|
A|------------10-8-|---------------------------|--------------------------------------------2-3-|
E|-----------------|---7\5-5-----5\3--3--3-2-0-|----0-2-1---1/5-5-------5\3--3--3----3--3-5-----|

CORO
RIFF 1

INTERLÚDIO 2                         ESCALA FEITA JUNTO COM O SOLO DE GUITARRA

G|--------------|--------------|              G|------------------|
D|--------------|--------------|              D|-------------2-4--|
A|-1-1----------|-1-1----------|              A|------2-4-5-------|
E|------5-5--3/-|------5-5--3/-|              E|-3-5--------------|

CORO
RIFF1
CORO
RIFF1

INTERLÚDIO 3

G|--------------------|-------------------------|------------------|-----------------------|
D|--------------------|-------------------------|------------------|-----5-4-7-5-3-2-------|
A|--1-1--/7-7-7--\5-5-|-5\1--1-1--/7-7-7--\5-5--|-5\1--1-1--/7-7-7-|-7-5-------------5-3\1-|
E|--------------------|-------------------------|------------------|-----------------------|

BASE DO SOLO DE GUITARRA

G|-------------------|
D|-------------------|
A|--1-1--/7-7-7-\5-5-|
E|-------------------|

RIFF1

FINAL DA MÚSICA

G|----------------------------------------------------------------|
D|--------------3/5-3-2----------------7/9-7-6--------------------|
A|-5--\1-1-/3-3---------3/5-5--\1-1--7---------7-5--\1-1--/3-3----|
E|-------------------------------------------------------------0--|

___________________________________________________________________
Colaboração: WILTON JUNIOR DE MELO KORT-KAMP - wjrkort_kamp@hotmail.com 

><> Supergospel.com.br - O portal da música gospel

Também para esta música: Cifra

 RECURSOS    Corrigir música | Versão para impressão | Indicar a um amigo | Compre este CD
Copyright - 2001 - 2018 Supergospel. Todos os direitos reservados.