Twitter do SuperGospel Facebook do SuperGospel

Matérias em destaque



Mais alto (Tablatura de guitarra / violão)
Oficina G3


Afinação da Guitarra 2 tons abaixo, em C. 
 
Riff 1 
E|------------------------------------------------|  
B|------------------------------------------------|     
G|------------------------------------------------| 
D|-5-5-5-5-5-5-5-5----------5---------------------| 
A|-3-6-3-3-6-3-6-3-3h8-3h6-3-3--------------------| 
E-------------------------------------------------|   
 
Riff 2 
E|-------------------|----------------------------|  
B|-------------------|----------------------------|     
G|-----------------3-|----------------------------| 
D|--------------3--3-|5--5-5-5-5-5-5--------------| 
A|-3(H)~~-1(H)~~3--1-|3--6h3-3-6-6h3--------------| 
E---------------1----|----------------------------|   
 
Riff 3 
E|------------------------------------------------| 
B|----------------------------------------3-5-6---|   
G|-------------0(H)alv---------------2-4-5--------| 
D|-5-3------3----------5-5-5----2-3-5-------------| 
A|-3-1-1(H)-3----------3-3-3?3-5------------------| 
E-----------1-------------------------------------| 
 
Riff 3 
E|------------------------------------------------| 
B|-5h3--------------------------------------------| 
G|----5h4h2-5h4h2---------------------------------| 
D|---------------5-3---3-3-3-3?-8-----------------| 
A|---------------------3-3-3-3--8-----------------| 
E----------------------1-1-1-1--6-----------------| 
 
 
Riff 4 
E|------------------------------------------------|  
B|------------------------------------------------|     
G|----3-5h3-3h5h3---------------------------------| 
D|---5--------------------------------------------| 
A|---------------6-5-3----------------------------| 
E-------------------------------------------------|   
 
 
Riff 5 
E|------------------------------------------------|  
B|------------------------------------------------|     
G|------------------------------------------------| 
D|------------------------------------------------| 
A|--3-6-3-1-3-1-1---------------------------------| 
E----6---------1----------------------------------|   
 
Riff 2  
C5               Bb9       F9 
Não ache que estou derrotado 
   Bb9        C5 
Você está errado 
Riff 3 
 C5        Bb9     F9        Bb9 
Não pense que eu não vou conseguir 
   C5            
Está enganado, uôôôôôôô...  
 
   
 
 F5                   D#5 
No medo há vontade de fugir 
                   C5 
Ma não vou desistir (riff 1)  
  F5        D#5        C5 (riff4) 
Espero em Deus e com Ele 
 
 
      C5    G#5              F5 
Vou andar, vou correr, vou voar 
    D#5      C5   G#5               F5 
Mais alto, voar, vou correr, vou andar 
D#5          (riff 1)  
Ao seu lado 
 
     
Riff 1 
    C5     Bb9       F5 
Se você espera minha queda 
     Bb9       C5 
Não perca teu tempo 
   
Riff 3 sem alavanca 
  C5         Bb9        F5        Bb9   C9        
Não são os problemas que vão conseguir calar minha voz 
 
     F5                D#9 
Com Deus eu vou mais além 
                  C5 
Pois a muito a fazer riff 1 
   F5      D#5       C5 
Confio em Deus e com Ele  riff 4 
 
 
Refrão 
 
Riff 1 antes do solo 
 
Base do solo . F5 . D#- Bb9 F# Bb9 D# RIFF 4 
 
Refrão 2X 
 
RIFF 1  
RIFF 5 .final. 

___________________________________________________________________
Colaboração: Mauricio J.Frigo - frigo.r@terra.com.br 

><> Supergospel.com.br - O portal da música gospel

Também para esta música: Cifra

 RECURSOS    Corrigir música | Versão para impressão | Indicar a um amigo | Compre este CD
Copyright - 2001 - 2018 Supergospel. Todos os direitos reservados.