Twitter do SuperGospel Facebook do SuperGospel

Matérias em destaque



Your Eyes II Inst. (Tablatura de guitarra / violão)
Oficina G3


Tablatura:
-=======-

E|-----------------------------------------------14-----14b6-14b16--16-18-19b21r19-|
B|-------------------------12-11~-12-11~------14----16-----------------------------|
G|-----------------11-9~~------------------15--------------------------------------|
D|-------9-8~-9-8~-----------------------------------------------------------------|
A|-s7~~----------------------------------------------------------------------------|
E|---------------------------------------------------------------------------------|

E|-19p18-18p16-16h18-18p14-14h16-16s--19-18-16----------------------------------------------|
B|--------------------------------------------19-18-16--------------------------------------|
G|------------------------------------------------------16-15-13----------------------------|
D|---------------------------------------------------------------16-15-13-------------------|
A|------------------------------------------------------------------------14-13-11----------|
E|---------------------------------------------------------------------------------14-13-11-|

E|-----------------------------------------------------------------14-14~--19--18-16~-|
B|-------------------------12~-11-12-12s14--16-16h17p16-16~--17-17--------------------|
G|-11br-9~---------8-9-11-------------------------------------------------------------|
D|----------8-9-11--------------------------------------------------------------------|
A|------------------------------------------------------------------------------------|
E|------------------------------------------------------------------------------------|

E|-------------------------------------------------------------------------------------------|
B|-16h17-17s19-19p17-17-17s14-14h17-17p12-12s11-11s9-9h11-11br-9~~---------------------------|
G|-----------------------------------------------------------------s7~-9fb-12t-p9rb-14t-9rp7-|
D|-------------------------------------------------------------------------------------------|
A|-------------------------------------------------------------------------------------------|
E|-------------------------------------------------------------------------------------------|

E|-----------------------------------------|
B|-----------------------------------------|
G|-9brp7-9brp7-9brp7-9brp7-9brp7-9brp7-9~~-|
D|-----------------------------------------|
A|-----------------------------------------|
E|-----------------------------------------|

E|-------------------------------------------------------------14-15-17-14-15-17-19~~-|
B|----------------------------------------------------14-15-17------------------------|
G|----------------------------------11-12-14-11-12-14---------------------------------|
D|-------------------------11-12-14---------------------------------------------------|
A|---------9-10-12-9-10-12------------------------------------------------------------|
E|-9-10-12----------------------------------------------------------------------------|
                                                                                
E|-22fb-22-22rb-22s21-21s19-17-19-17~~--~s17~~-17-17s15-15s14-14s12-12p10-10h12-12s15-17~~-|
B|-----------------------------------------------------------------------------------------|
G|-----------------------------------------------------------------------------------------|
D|-----------------------------------------------------------------------------------------|
A|-----------------------------------------------------------------------------------------|
E|-----------------------------------------------------------------------------------------|

E|-18~~-18h19-18~---------------||
B|----------------17s19~-17~~~~-||
G|------------------------------||
D|------------------------------||
A|------------------------------||
E|------------------------------||

___________________________________________________________________
Colaboração: Mauricio J.Frigo - frigo.r@terra.com.br 

><> Supergospel.com.br - O portal da música gospel

 RECURSOS    Corrigir música | Versão para impressão | Indicar a um amigo | Compre este CD
Copyright - 2001 - 2018 Supergospel. Todos os direitos reservados.