Twitter do SuperGospel Facebook do SuperGospel

Matérias em destaque



Abra o coração (Tablatura de guitarra / violão)
Filhos do Homem


(5:36)
e|-------------------------------------17------------------------------------17-| 
B|-17/\--17--15------15--17--15--17/\******17\/--15--17--15--17--17/\--17-15----| 
G|---------------16-------------------------------------------------------------| 
D|------------------------------------------------------------------------------| 
A|------------------------------------------------------------------------------| 
E|------------------------------------------------------------------------------|

e|-22-21-19-21-19-17-19-17----------------------------------| 
B|-------------------------20-19-20-19-17-19-17-------------| 
G|----------------------------------------------19-19/\-----| 
D|----------------------------------------------------------| 
A|----------------------------------------------------------| 
E|----------------------------------------------------------|

e|--------------------------------------------| 
B|-----------------------10-------------------| 
G|-9/\-9-7---7-9-7-9/\-9-----9/\-9-7----7-10--| 
D|---------9----------------------------------| 
A|--------------------------------------------| 
E|--------------------------------------------|

e|--------------------------------------------| 
B|-----------------------------------10-------| 
G|---------------------------9-11-12----------| 
D|-------------------9-11-12------------------| 
A|-----------9-10-12--------------------------| 
E|-9--10--12----------------------------------|

___________________________________________________________________
Colaboração: Filipe Augusto Bonacin - fibonacin_meddora@hotmail.com 

><> Supergospel.com.br - O portal da música gospel

Também para esta música: Cifra

 RECURSOS    Corrigir música | Versão para impressão | Indicar a um amigo | Compre este CD
Copyright - 2001 - 2018 Supergospel. Todos os direitos reservados.