Twitter do SuperGospel Facebook do SuperGospel

Matérias em destaque



Blessed (Tablatura de guitarra / violão)
Hillsong Worship


(4:10)
e|--------------------------------------------| 
B|--------------------------------------------| 
G|---7-9-9-11~-----11--11--9------------------| 
D|-7------------------------------------------| 
A|--------------------------------------------| 
E|--------------------------------------------|

e|--------------------------------------------| 
B|--12--14--15~--14~--10--10-10-12------------| 
G|--------------------------------------------| 
D|--------------------------------------------| 
A|--------------------------------------------| 
E|--------------------------------------------|

e|--------------------------------------------| 
B|--------------------------------------------| 
G|--------------------------------------------| 
D|--9--7-9/\---9--7--9------------------------| 
A|--------------------------------------------| 
E|--------------------------------------------|

e|-------------15--17-----17--17--17~---------| 
B|--15--12--14--------------------------------| 
G|--------------------------------------------| 
D|--------------------------------------------| 
A|--------------------------------------------| 
E|--------------------------------------------|

e|--------------------------------------------| 
B|--15--17--15--17-19~------------------------| 
G|--------------------------------------------| 
D|--------------------------------------------| 
A|--------------------------------------------| 
E|--------------------------------------------|

___________________________________________________________________
Colaboração: Filipe Augusto Bonacin - fibonacin_meddora@hotmail.com 

><> Supergospel.com.br - O portal da música gospel

Também para esta música: Cifra

 RECURSOS    Corrigir música | Versão para impressão | Indicar a um amigo | Compre este CD
Copyright - 2001 - 2018 Supergospel. Todos os direitos reservados.