Twitter do SuperGospel Facebook do SuperGospel

Matérias em destaque



Contra-cultura (Tablatura de baixo)
Oficina G3


solo do baixo.

  (1ºparte)
E--------------------------------------------------------------------------------
A---12/14--12/14--------------------------------12-14----------------------------
D-----------------14-16-14-12-14-14/16-14-16-14-------12-14----------------------
G----------------------------------------------------------11-13--14-11-13-14-11-

---------------------------------------------------------------------------------
---------------------------------------------------------------------------------
---------------14-16----------16-14---------16-14/7------------------------------
-13-14-11-13---------14-16-14-------14_16-14-------------------------------------


 (2º parte)
E-------------------------------------------------------------------------------------------
A-------------------------------------------------------------------------------------------
D-----------16-14----------16-14----------------------21-19-----------21-19-----------------
G--16-16-14--------16-16-14-------16-16-14---21-21-19--------21-21-19--------16-18-19-18-16-


-------------------------------------------------------------------------------------------
--------19----------19-----------------14----------14-14--19-21----------------------------
--19-16----19-18-16----19-18-16--14-12----12_14_12--------------19-21---------21-19--------
----------------------------------------------------------------------19-21-19------19/21--

------------
------------
--21--------
-----19/21--

___________________________________________________________________
Colaboração: WILTON JUNIOR DE MELO KORT-KAMP - wjrkort_kamp@hotmail.com 

><> Supergospel.com.br - O portal da música gospel

Também para esta música: Cifra | Tablatura de guitarra

 RECURSOS    Corrigir música | Versão para impressão | Indicar a um amigo | Compre este CD
Copyright - 2001 - 2018 Supergospel. Todos os direitos reservados.