Twitter do SuperGospel Facebook do SuperGospel

Matérias em destaque



Correr Para Deus (Tablatura de guitarra / violão)
Aline Barros


INTRO / INTERLÚDIO

E|----------------------|--------------------|
B|----------------------|--------------------|
G|----------------------|--------------------|
D|------------------4-2-|--------------------|    (2x)
A|--2h4--2h4--2h4-------|--2h4--2h4--2h4-/16-|
e|----------------------|--------------------|

SOLO DE GUITARRA

E|---------------------------------------------|
B|------------7/9------7/9-7-------------------|
G|--4/6-6-8-9---------------------11/13-11-----|   (2X)
D|----------------9-9--------9-9-----------7/9-|
A|---------------------------------------------|
e|---------------------------------------------|


FINAL

E|----------------------|---------------------------|
B|----------------------|-----------------/14BEND---|
G|----------------------|---------------------------|
D|------------------4-2-|---------------------------| 
A|--2h4--2h4--2h4-------|--2h4--2h4--2h4------------|
e|----------------------|---------------------------|

E|----------------------|--------------------|
B|----------------------|--------------------|
G|----------------------|--------------------|
D|------------------4-2-|--------------------|    
A|--2h4--2h4--2h4-------|--2h4--2h4--2h4-----|
e|----------------------|--------------------|

___________________________________________________________________
Colaboração: WILTON JUNIOR DE MELO KORT-KAMP - wjrkort_kamp@hotmail.com 

><> Supergospel.com.br - O portal da música gospel

Também para esta música: Cifra | Tablatura de baixo

 RECURSOS    Corrigir música | Versão para impressão | Indicar a um amigo | Compre este CD
Copyright - 2001 - 2018 Supergospel. Todos os direitos reservados.