Twitter do SuperGospel Facebook do SuperGospel

Matérias em destaque



Bem Aventurado (Tablatura de guitarra / violão)
Aline Barros


Ultimo Solo: 
 
     F         C                   G              Am             F                                              
E||-----------------------------------------------------------------------| 
B||-----------------------------------------------------------------------|                             
G||------12/14-12---10-9-------10/12---10-9-------9b----------12/14-------| 
D||--10------------------12-10--------------12-10---10--10-12-------------| 
A||-----------------------------------------------------------------------| 
E||-----------------------------------------------------------------------| 
 
 
          C                G               Am                             F       
E||-------12-12-12-12-----------------------------------------------------------|| 
B||-13h15-------------15-13-15--------13-12-13--12h13-12------------------------||   
G||----------------------------12-12---------------------14-12----------12/14---||      
D||------------------------------------------------------------14-12------------|| 
A||------------------------------------------------------------------14---------|| 
E||-----------------------------------------------------------------------------|| 

___________________________________________________________________
Colaboração: Mauricio J.Frigo - frigo.r@terra.com.br 

><> Supergospel.com.br - O portal da música gospel

Também para esta música: Cifra

 RECURSOS    Corrigir música | Versão para impressão | Indicar a um amigo | Compre este CD
Copyright - 2001 - 2018 Supergospel. Todos os direitos reservados.