Twitter do SuperGospel Facebook do SuperGospel

Matérias em destaque



Extra (Tablatura de guitarra / violão)
Katsbarnea


[Solo I] = INTRO
    Gm     Eb        Bb     D
e|------------------------------------|
B|------------------------------------|
G|------------------------------------|
D|--------------------------6-5-6-5---|
A|------3--4-3-4-3-------6----------8-|
E|--3-6-----------6--6-9--------------| 4X


[Solo II]
  Gm        Eb        Bb            D
e|------------------------------------------------|
B|--7-7-5---5-----5-7-----10-10-8\7/8-8-10-12-14--|
G|--------8---5-8---------------------------------|
D|------------------------------------------------|
A|------------------------------------------------|
E|------------------------------------------------| 2x

[Solo III]
    F    Em     C      Bm
e|------------------------------------|
B|------------------------------------|
G|------------------------------------|
D|------------------------------------|
A|----10-9--7-9-10--12-10-9-7---------|
E|--8-------------------------10--(8)-| 2x

___________________________________________________________________
Colaboração: Alysson Modesto Afonso - pardalx01@yahoo.com.br 

><> Supergospel.com.br - O portal da música gospel

Também para esta música: Cifra

 RECURSOS    Corrigir música | Versão para impressão | Indicar a um amigo
Copyright - 2001 - 2018 Supergospel. Todos os direitos reservados.