Twitter do SuperGospel Facebook do SuperGospel

Matérias em destaque



O Amor vai compreender (Tablatura de guitarra / violão)
Leonardo Gonçalves


e|-----7p5------------5-|-----|
B|----5----5--------4---|-4-3-|
G|---5-------5-----5-5--|-5-5-|
D|--5----------5--4-----|-4-4-|
A|-0-------------5------|-5-5-|
E|----------------------|-----|

e|---|-3h5-2h3h2--------------|
B|-3-|-----------3------------|
G|-4-|-------------4----------|
D|-4-|---------------5-4-2p0--|
A|---|------------------------|
E|-3-|------------------------|

e|-------3p0-|-----------|
B|----1------|-5-3-------|
G|---0-0-----|-----5-4-2-| Am - A4
D|--2--------|-----------|
A|-3---------|-----------|
E|-----------|-----------|

___________________________________________________________________
Colaboração: Stênio Figueiredo - stenio_melo@hotmail.com 

><> Supergospel.com.br - O portal da música gospel

Também para esta música: Cifra

 RECURSOS    Corrigir música | Versão para impressão | Indicar a um amigo | Compre este CD
Copyright - 2001 - 2018 Supergospel. Todos os direitos reservados.