Twitter do SuperGospel Facebook do SuperGospel

Matérias em destaque



Dias de Elias (Tablatura de guitarra / violão)
Fernanda Brum


E-----------------------------------------------|
B-----------------------------------------------|
G----------5---7---11/12---9/11----7/9---5/7----|
D---5---7---------------------------------------|
A-----------------------------------------------|
E-----------------------------------------------|

E-----------------------------------------------|
B--------15-------------------------------------|
G----14------14/16---12-------14----------------|
D------------------------12---------------------|
A-----------------------------------------------|
E-----------------------------------------------|


E-----------------------------------------------|
B-----------------------------------------------|
G--------------------------11---12--------------|
D---------11---12---14--------------------------|
A----14-----------------------------------------|
E-----------------------------------------------|


E-----------------------------------------------|
B-------------17---15---------------------------|
G----14--16-------------------------------------|
D-----------------------------------------------|
A-----------------------------------------------|
E-----------------------------------------------|

E-------------------------14--15----------------|
B------------14--15--17------------17/19--------|
G----14--16-------------------------------------|
D-----------------------------------------------|
A-----------------------------------------------|
E-----------------------------------------------|


COMENTARIO: O SOLO É BEM SIMPLES E POSSUI UMA MELODIA INTERESSANTE,
OS BANDS ESTÃO REPRESENTADOS "*/*" ASSIM.

AGORA É SÓ SEGUIR O BPM DA MUSICA E MANDAR VER NO SOLO.

OBS: "USAR LIGADURA"!!!

BOA SORTE A TODOS OS INTERESSADOS!!!

___________________________________________________________________
Colaboração: Alsenvitor Campos Aires do nascimento - alsenvitorcampos@yahoo.com.br 

><> Supergospel.com.br - O portal da música gospel

Também para esta música: Cifra

 RECURSOS    Corrigir música | Versão para impressão | Indicar a um amigo | Compre este CD
Copyright - 2001 - 2018 Supergospel. Todos os direitos reservados.