Twitter do SuperGospel Facebook do SuperGospel

Matérias em destaque



Te Amo (Tablatura de guitarra / violão)
Novo Som


Intro: E  E4  D  A  E

E---------------------------------------------------------------
B---------------------------------------------------------------
G---13--13/14--13--13--11--11----11--9--9--9/11--9--11/11b\0----
D---------------------------------------------------------------
A---------------------------------------------------------------
E---------------------------------------------------------------

O vento traz uma flor com um perfume que é só seu.
O espelho do amor no coração
Reflete a luz do seu olhar
Se uma rosa cair do jardim do coração
Sim eu vou pedir à Deus para restaurar
E trazer de volta a primavera.

Perdoa se eu errar, vou te pedir prá ficar
Te amo e nada vai me separar de você

Solo: B  E  A  F#m  B  G#m 

E-------------------------------------11-----------------
B----------------------------12--14--------12h14p12\0----
G-------------11--13--14---------------------------------
D----13--14----------------------------------------------
A--------------------------------------------------------
E--------------------------------------------------------

Se o sol se apagar e o céu azul escurecer
Eu não vou dizer adeus
E, sem chorar, vou pedir á Deus para você ficar

Perdoa se eu errar, vou te pedir prá ficar          
Te amo e nada vai me separar de você            2x

Solo:.  B4  B  C#4  C#  F#  F#4  F#  E  B  F#

E-------------------------------------------------------------------18--16--14----------------
B-------------------------------------------------------------------------------16--14--12/18-
G----13/15--16\0----15--13--13--11/13--11--11--11/16--16--15--15b-----------------------------
D---------------------------------------------------------------------------------------------
A---------------------------------------------------------------------------------------------
E---------------------------------------------------------------------------------------------

 :. F#  F#4  E  D  A4  A  B  E

E----18--18/19--18--16--16---16h14--14---14--14\0--
B--------------------------------------------------
G--------------------------------------------------
D--------------------------------------------------
A--------------------------------------------------
E--------------------------------------------------

Perdoa se eu errar, 

E---16h17--16-----------
B--------------19--17---

Vou te pedir prá ficar          
Te amo e nada vai me separar de você...          

___________________________________________________________________
Colaboração: Julie Ane Cavalcanti de Godoy - guitar.teclas@yahoo.com.br 

><> Supergospel.com.br - O portal da música gospel

Também para esta música: Cifra

 RECURSOS    Corrigir música | Versão para impressão | Indicar a um amigo
Copyright - 2001 - 2018 Supergospel. Todos os direitos reservados.