Twitter do SuperGospel Facebook do SuperGospel

Matérias em destaque



Só Depende de Você (Tablatura de guitarra / violão)
Novo Som


e |------------|---------5--6-5-6-5----------|---------------5---5-6-8/10-8------------------------|
B |--5-6-8-----|--5-6-8--------------6-8-----|-6-5---5-6-8---8----------------8h10p8---10-11-10----|
G |---------5--|-----------------------------|-----7-----------------------------------------------|
D |------------|-----------------------------|-----------------------------------------------------|
A |------------|-----------------------------|-----------------------------------------------------|
E |------------|-----------------------------|-----------------------------------------------------|

e |--------8---10----------|
B |-8h10-8-8-10-8----------|
G |------------------10-7--|
D |------------------------|
A |------------------------|
E |------------------------|

___________________________________________________________________
Colaboração: Leewan Alves de Meneses - leewanalves@hotmail.com 

><> Supergospel.com.br - O portal da música gospel

 RECURSOS    Corrigir música | Versão para impressão | Indicar a um amigo
Copyright - 2001 - 2018 Supergospel. Todos os direitos reservados.