Twitter do SuperGospel Facebook do SuperGospel

Matérias em destaque



É Deus no Meio da Igreja (Tablatura de guitarra / violão)
Fernanda Brum


Base da Introdução: G G7        3x      na última vez   F E F/C G        

Solo de introdução:                                                 
e------------------------------------------                     
B------------------------------------------                     
G------------------3------------------3----                     
D---5-0-3-5-0-3---5-5-0-3-5-0-3---5--------                     
A------------------------------------------         
E------------------------------------------                     
                                                                          
        Na última vez
e---------------------------------
B---------------------------------
G---7-5-4-2-0---------------------
D---------------2-3---2-3-5-------
A---------------------------------
E---------------------------------

___________________________________________________________________
Colaboração: Eduardo de Oliveira Coelho - educristao7@yahoo.com.br 

><> Supergospel.com.br - O portal da música gospel

Também para esta música: Cifra

 RECURSOS    Corrigir música | Versão para impressão | Indicar a um amigo | Compre este CD
Copyright - 2001 - 2018 Supergospel. Todos os direitos reservados.