Twitter do SuperGospel Facebook do SuperGospel

Matérias em destaque



Salvation Is Here (Tablatura de baixo)
Hillsong Worship


E|---------------------------------------------------------------------------------|
A|------------------14----------------------------------16-------------------------|
D|18----------18-------18-16-------16-14-18----18----18----18----------16-18-------|
G|---16-18-16----16----------18-16----------16----16----------20-18-16-------------|


E|----------------7----------------------------9-----------------------------------|
A|11------11---11---11-9------9-7-11---11---11---11---------9-11-------------------|
D|---9-11----9-----------11-9--------9----9---------13-11-9------------------------|
G|---------------------------------------------------------------------------------|

E|----------------7-------------------0-2-4---0-2-4--------------------------------|
A|11------11---11---11-9------9-7-4-2-------2-------14-----------------------------|
D|---9-11----9-----------11-9------------------------------------------------------|
G|---------------------------------------------------------------------------------|


___________________________________________________________________
Colaboração: Matheus Augusto - matheus_augusto_7@hotmail.com 

><> Supergospel.com.br - O portal da música gospel

Também para esta música: Cifra

 RECURSOS    Corrigir música | Versão para impressão | Indicar a um amigo | Compre este CD
Copyright - 2001 - 2018 Supergospel. Todos os direitos reservados.