Twitter do SuperGospel Facebook do SuperGospel

Matérias em destaque



Tudo é Teu (Take it all) (Tablatura de guitarra / violão)
Aline Barros


Intrô:
Guitarra       Guitarra
Distorção      Solo
e-----------|----------------5/7------------------------|
B|-----------|-8-10--6-8--5-6-------8-10--6-8--5-6-5b3---|
G|-----------|-------------------------------------------|
D|---5---5---|-------------------------------------------|
A|-----------|-------------------------------------------|
E|-----------|-------------------------------------------|


Solo depois do refrão 

Solo:
e|-------------------|
B|---9-11-13-15------|
G|-------------------|


Busco a Ti...

___________________________________________________________________
Colaboração: Heloize Tavares - heloize_tavares@yahoo.com.br 

><> Supergospel.com.br - O portal da música gospel

Também para esta música: Cifra

 RECURSOS    Corrigir música | Versão para impressão | Indicar a um amigo | Compre este CD
Copyright - 2001 - 2018 Supergospel. Todos os direitos reservados.