Twitter do SuperGospel Facebook do SuperGospel

Matérias em destaque



Senhor, Te quero (Tablatura de baixo)
Vineyard Music


G ||---------------------------------------|
D ||---------------------------------------|
A ||-----2-----2-3-3-2-3-3-2-2/7-7-5-3-3-2-|
E ||-3-3---3-3-----------------------------|

Refrão
G ||--------------------------------------------|
D ||--------------------------------------------|
A ||-------5-5-537-7-7-3-3-5----------5-5-523-3-|
E ||-3-3-3----------------------3-3-3-----------|

Refrão (Oitavado, para quem quiser algo mais agudo, ideal para refrão extra)

G ||-0-0-0-7-7-759-9-9-5-5-7-0-0-0-7-7-745-5-|
D ||-----------------------------------------|
A ||-----------------------------------------|
E ||-----------------------------------------|

Tab by JnR/Bass

___________________________________________________________________
Colaboração: Antonio Rodrigues Junior - contato_junior@pop.com.br 

><> Supergospel.com.br - O portal da música gospel

Também para esta música: Cifra | Tablatura de guitarra

 RECURSOS    Corrigir música | Versão para impressão | Indicar a um amigo | Compre este CD
Copyright - 2001 - 2018 Supergospel. Todos os direitos reservados.