Twitter do SuperGospel Facebook do SuperGospel

Matérias em destaque



Eu e Você (Tablatura de guitarra / violão)
Novo Som


Solo intro:

E--------------------------------------------------------------------------
B--10------10/12---10--------10/12------9--------9--10----10-----10/12~----
G----------------------------------------------------11--------------------
D--------------------------------------------------------------------------
A--------------------------------------------------------------------------
E--------------------------------------------------------------------------

E--------------------------------------------------------------------------
B--10------10/12---10--------10/12------9--------9--10----10-----10/12~----
G----------------------------------------------------11--------------------
D--------------------------------------------------------------------------
A--------------------------------------------------------------------------
E--------------------------------------------------------------------------


Fala galera!!!!  um ai pra vcs....facil facil...
fui>>>>>>

___________________________________________________________________
Colaboração: cleber alexandre de lima rosa - cleber_f7@hotmail.com 

><> Supergospel.com.br - O portal da música gospel

Também para esta música: Cifra

 RECURSOS    Corrigir música | Versão para impressão | Indicar a um amigo
Copyright - 2001 - 2018 Supergospel. Todos os direitos reservados.