Twitter do SuperGospel Facebook do SuperGospel

Matérias em destaque



Cura-me (Tablatura de guitarra / violão)
Oficina G3


Esse solo inicail lembra um pouco o solo Hands do NIG 
Strings Evolution 3 gravado pelo próprio Juninho Afram.
   Na Parte do delay, voce pode repetir duas vezes a 
Sequencia do 3/5---5 que ficará quase igual, além de dar
um peso e uma característica especial......


e|--------------------------------------3/5---5(delay)- 
b|----------6---3---4/6---4---3---3p4------------------
G|------/5----------------------5----------------------
D|-----------------------------------------------------
A|-----------------------------------------------------
E|-----------------------------------------------------

e|---6/8---8---8---8---6-----------6---8--13---10------ 
b|-------------------------8---8-----------------------
G|-----------------------------------------------------
D|-----------------------------------------------------
A|-----------------------------------------------------
E|-----------------------------------------------------

e|---8p6---8---5p6---5---5---1---3---------------------
b|-----------------------------------------------------
G|-----------------------------------------------------
D|-----------------------------------------------------
A|-----------------------------------------------------
E|-----------------------------------------------------


by: Feijaum Maykel (Guitarrista Banda Ômega p1)

___________________________________________________________________
Colaboração: Maykel Raphael Outeiro de Oliveira Nazaré - cruznaza@ig.com.br 

><> Supergospel.com.br - O portal da música gospel

Também para esta música: Cifra

 RECURSOS    Corrigir música | Versão para impressão | Indicar a um amigo | Compre este CD
Copyright - 2001 - 2018 Supergospel. Todos os direitos reservados.