Twitter do SuperGospel Facebook do SuperGospel

Matérias em destaque



Deserto (Tablatura de guitarra / violão)
Oficina G3


Em  D/F#  G  Gm 
Em  D/F#  Am  C 
 tabs & dicas 
E----------------------------------------------------- 
B----------------------------------------------------- 
G----------------------------------------------------- 
D------------5-4---2---------------------------------- 
A--0-2-3-5-3-----5---2-------------------------------- 
E----------------------0------------------------------ 
 

Em               D/F# 
     Levo em meus olhos 
        G           C 
     Razões pra chorar 
 tabs & dicas 
E----------------------------------------------------- 
B----------------------------------------------------- 
G----------------------------------------------------- 
D------------5-4-------------------------------------- 
A--0-2-3-5-3------------------------------------------ 
E----------------------------------------------------- 
 
  Em               D/F# 
     Marcas que o tempo 
          G       C 
     Não pode apagar 
 tabs & dicas 
A--2-5-2---0------------------------------------------ 
E--------3-------------------------------------------- 
 
  Am                 G/B            F9 
     Lembranças de um tempo que se foi 
  Am          G/B              F 
     Se as estrelas podes contar 
             Dm         G  
     O que posso esperar 

          G#           Eb 
     Mesmo sem ver 
                     Bb 
     Estava ao meu lado 
                            F 
     Me levando em teus braços 

  G#                Eb 
     Levanta-se do sol 
		      Bb	 
     Renova-se a esperança 
			   F 
     Me entrego ao teu cuidado      

 tabs & dicas 
E----------------------------------------------------- 
B----------------------------------------------------- 
G----------------------------------------------------- 
D------------5-4---2---------------------------------- 
A--0-2-3-5-3-----5---2-------------------------------- 
E----------------------0------------------------------ 
 

Em         D/F# 
     Ao olhar pra trás 
	   G		   C 
     Pude ver seus olhos sobre mim 
  Em         D/F# 
     Posso acreditar 
                G            C 
     Que o impossível vai acontecer 
   Am                 G/B         F9         
     Promessas de um tempo que virá 
   Am        G/B              F 
     Se as estrelas podes contar 
    Dm           G 
     Vou descansar 


Solo: C#       G        F     G#    G 

Final:                      F   Eb  Bb

mais informações ligue:(19)37059300 falar com jonnata

 Jhow acima de TUDO, DEUS!!!

___________________________________________________________________
Colaboração: Jonnata Teixeira dos Santos - jonnata12@hotmail.com 

><> Supergospel.com.br - O portal da música gospel

Também para esta música: Cifra

 RECURSOS    Corrigir música | Versão para impressão | Indicar a um amigo | Compre este CD
Copyright - 2001 - 2018 Supergospel. Todos os direitos reservados.