Twitter do SuperGospel Facebook do SuperGospel

Matérias em destaque



Indiferença (Tablatura de guitarra / violão)
Oficina G3


Bridge 2X

E-------------------------------------1---2---3\\-----------
B-------------3 --4---5----1-1--1--4-1--1---1--------------
G-2-2-2--5--2---2---2--------------------------------------
D----------------------------------------------------------
A----------------------------------------------------------
E----------------------------------------------------------

(JAZZ)
Abra o vidro do seu coração, o amor gera atitude
Comece a agir, chega de falar, só com palavras não se pode mudar

SOLO JUNINHO

Depois do jazz...baixo faz riff normal e viola faz o solo...

E---10b---------------------------10-10-10-10-----------------------
B---10b-10b--8~------8--8-----8---8--8--8--8------------------------
G----------------7h9------7h9---------------------9p7---------------
D-------------------------------------------------------------------
A-------------------------------------------------------------------
E-------------------------------------------------------------------

E-----------10------------------------------------------------------
B-------8-10b--10--8--8--8-10~--------------------------------------
G---7h9-------------9--9-------------7---7/9----9-7-----------------
D--------------------------------7/9---9------------9-8-7-----------
A-----------------------------------------------------------10~~/---
E-------------------------------------------------------------------

E-----------------------------------------------10-------10-10------
B-------8---8h10-11p10p8--10-8~~--------8-10b(h)---10----10-10------
G----7h9--9-------------9----------7h9----------------9-------------
D-7h9---------------------------------------------------------------
A-------------------------------------------------------------------
E-------------------------------------------------------------------

E--12-----12---10b-------------10h12p10----------10b----------------
B----12/15b----10b-8h10---10/12---------12-11-10-10b-10p8-8h10--8~~-
G--------------------------------------------------------9----------
D-------------------------------------------------------------------
A-------------------------------------------------------------------
E-------------------------------------------------------------------





E-12---10---7----5---7----10---12---15---12~--10---10--10-10----12/10
B-15b--13b--10b--8b--10b--13b--15b--18b-------10b--10--10-10--8-12/10
G--------------------------------------------------------------------
D--------------------------------------------------------------------
A--------------------------------------------------------------------
E--------------------------------------------------------------------

E-12--------12-12p10-------------------------------------------------
B-15b-12/15---------12-11-10-8--8-10h11h12-11-10---------------------
G-------------------------------------------------9~~~---------------
D--------------------------------------------------------------------
A--------------------------------------------------------------------
E--------------------------------------------------------------------

___________________________________________________________________
Colaboração: Fayson Rodrigo - fayson_rodrigo@hotmail.com 

><> Supergospel.com.br - O portal da música gospel

Também para esta música: Cifra

 RECURSOS    Corrigir música | Versão para impressão | Indicar a um amigo
Copyright - 2001 - 2018 Supergospel. Todos os direitos reservados.