Twitter do SuperGospel Facebook do SuperGospel

Matérias em destaque



Sem tréguea (Tablatura de guitarra / violão)
Oficina G3


guitar
       Afinação 2 tons abaixo da afinação normal
C ||----------------------------------------|
G ||----------------------------------------|
D#||----------------------------------------|
A#||-------7--6-----6--5-----5--4-----------|
F ||----------------------------------3-5---|
C ||--5--5--------5--------5--------5-----3-|
                                    PM......
Está é a parte do refrão / a mesma coisa   só com power acorde

C ||----------------------------------------|
G ||----------------------------------------|
D#||-------9--8-----8--7-----7--6-----------|
A#||-------7--6-----6--5-----5--4-----------|
F ||--7--7--------7--------7----------3-5---|
C ||--5--5--------5--------5--------5-----3-|
                                    PM......
valeu galera!!!!!!!!!

___________________________________________________________________
Colaboração: phillipe cezar sousa batalha - pc.jc@hotmail.com 

><> Supergospel.com.br - O portal da música gospel

Também para esta música: Cifra

 RECURSOS    Corrigir música | Versão para impressão | Indicar a um amigo | Compre este CD
Copyright - 2001 - 2018 Supergospel. Todos os direitos reservados.