Twitter do SuperGospel Facebook do SuperGospel

Matérias em destaque



Razão (Tablatura de guitarra / violão)
Oficina G3


Solo (02:04):
                                                                      


     S S S S S S S S S S S S T  T  S S S  
E||--------------------------------------|
B||----------2-----5-----2---------------|
G||------2-----------------4-4h-5p-4-2---|
D||--2-4---4---4-4---4-4---------------4-|
A||--------------------------------------|
E||--------------------------------------|


  S S S S S S S S T  T  S S S S S E     S S S S S S S S S S S S S S S S  
-------------------------------------|----------------------------------|
--------------2----------------------|----------------------2-----5-2---|
--2-----4-2-----4-4h-5p-4-2---4---2--|--------------2---2-4---4-2-----5-|
----4-2-----4---------------4---4----|----------2-4---4-----------------|
-------------------------------------|----2-3-4-------------------------|
-------------------------------------|----------------------------------|


  S S S S T  T  S S S S S S S S S S S      E.  E.    E.  E.    E.  S  
--------------------------------------|------------------------------|
--5-2---2-----------------------------|------------------------------|
------5---4h-5p-4-2---4---2-------2---|--2g4---2---4g6---4---6g7---6-|
--------------------4---4---4-2-4---4-|------------------------------|
--------------------------------------|------------------------------|
--------------------------------------|------------------------------|


                                 |---3--|                        |---3--|  
  E    E.  E.     E.  E.   E     S   S  S  E  E   E      E  Q    S   S  S  
------------------------------|-------------------------------------------|
--------------------------10--|--9h-10p-9---------------------------------|
--L--7g9---7---9g11---9-------|-----------11--9--11--11g13--9----9h-11p-9-|
------------------------------|-------------------------------------------|
------------------------------|-------------------------------------------|
------------------------------|-------------------------------------------|


  H         S  S  S S  S  S  S  S  
----------------------------------|
----------------------------10-13-|
--8-----------------9-11-13-------|
-----------10-11-13---------------|
----------------------------------|
----------------------------------|


               |--6--|  |--6--|  |--6--|  |--6--|          
   S  S  S  S  S  S  S  S  S  S  S  S  S  S  S  S  E   E   
-----11-12-14-16-14-12------------------------------------|
--14-------------------16-14-13-16-14-13------------------|
-----------------------------------------14-13-11-13--14--|
----------------------------------------------------------|
----------------------------------------------------------|
----------------------------------------------------------|


                                                  |---3---|           
   E.   E.   E.  E.   E   E      E.   E.   E.  S  S   S   S   E   E   
-----------------------------|---------------------------------------|
--12---14---14---L---12--14--|--16---17---16---L-14h-16p-14S-12------|
-----------------------------|-----------------------------------14--|
-----------------------------|---------------------------------------|
-----------------------------|---------------------------------------|
-----------------------------|---------------------------------------|


   H        E   E   E   E      Q     S   S   Q     Q.      
--14--------L------14--16--|--17----16h-17p-14----16------|
---------------14----------|------------------------------|
---------------------------|------------------------------|
---------------------------|------------------------------|
---------------------------|------------------------------|
---------------------------|------------------------------|


                  |---3---|     |---3--|  |---3---|  |---3---|  |---3---|   
  H        E   E  E   E   E     E   E  E  E   E   E  E   E   E  E   E   E   
--L--------------------------|--9--10--L--9----------9---------------------|
------------------9--10--12--|---------------12--10-----12--10--9------10--|
--------------11-------------|-------------------------------------11------|
-----------------------------|---------------------------------------------|
-----------------------------|---------------------------------------------|
-----------------------------|---------------------------------------------|


      H.               E  E     H        E     E  E   E   
-----------------------------|---------------------------|
-----------------------------|---------------------------|
--11g13------------13g11--9--|--L-----------------9--11--|
-----------------------------|--------------9g11---------|
-----------------------------|---------------------------|
-----------------------------|---------------------------|


   H.            E   E      E  E  E  E  E  E  E   E   
------------------------|----------------------------|
--------------------10--|--10--9--9------------------|
--11-------------L------|------------7--7--6--6--11--|
------------------------|----------------------------|
------------------------|----------------------------|
------------------------|----------------------------|


                               |-3-|                             
   E  E  E   E   E  E  Q       S S S S S S S S S S S S S S S E   
----------------------------|-----------------------------------|
----------------------------|----------------7-9-7--------------|
--11--9--9------------------|--6-7-6---6-7-9-------9-7-6--------|
------------11--11--9--9----|--------9-------------------9-7-6--|
----------------------------|-----------------------------------|
----------------------------|-----------------------------------|


  |-3-| |-3-| |-3-| |-3-|  |--3-| |--3-|  |--3--|  |--3--|  
  S S S S S S S S S S S S  S S  S S  S S  S  S  S  S  S  S  
------------5-9-5-------5-12-9---------9-16-12----------12-|
----------7-------7---7--------10---10---------14----14----|
--------6-----------6-------------9---------------14-------|
------7----------------------------------------------------|
----9------------------------------------------------------|
-----------------------------------------------------------|


                                         |--3-|                      
   E  S  S  E   E  Q.         E     Q    S  S S  Q    E   S S  S  S  
--16--L-12-----------------------|----------------------------------|
-----------14--14--L------14g10--|--9----9-10-9-------------9-10-12-|
---------------------------------|--------------11----L--11---------|
---------------------------------|----------------------------------|
---------------------------------|----------------------------------|
---------------------------------|----------------------------------|


  |--3-|                                 
  S  S S  S S  S  S S  S S  S S  S Q     
--9-10-9----9---------------------------|
---------12---12-10-9----9--------------|
----------------------11---11-9-11-9----|
----------------------------------------|
----------------------------------------|
----------------------------------------|


  |--6-| |--6-| |--6-| |--6-| |--6--| |--6--|  |--6--|  |--6--|  
  S S  S S S  S S S  S S S  S S  S  S S  S  S  S  S  S  S  S  S  
--------------------------------------9-10-12-14-12-10----------|
------------------------------9-10-12------------------14-12-10-|
-----------------------7-9-11-----------------------------------|
----------------7-9-11------------------------------------------|
---------7-9-11-------------------------------------------------|
--7-9-10--------------------------------------------------------|


   |--6--|  |--6--|  |--6--|  |--6--|  |--6--|  |--6--|  |--6--|  |--6--|  
   S  S  S  S  S  S  S  S  S  S  S  S  S  S  S  S  S  S  S  S  S  S  S  S  
--16-14-12----------17-16-14----------19-17-16----------17-16-14----------|
-----------15-14-12----------17-15-14----------19-17-15----------17-15-14-|
--------------------------------------------------------------------------|
--------------------------------------------------------------------------|
--------------------------------------------------------------------------|
--------------------------------------------------------------------------|


   S  S  S  S  S  S  S  S  S  S  S  S  S  S  S  S  
--17-14-------14----------------------------------|
--------17-14----17-14----17-14----14-------14----|
-----------------------17-------17----16-17----17-|
--------------------------------------------------|
--------------------------------------------------|
--------------------------------------------------|


   |--3--|                                    
   S  S  S  S  S  S  S  S  S  E   E   E   E   
-------------------------------------14--17--|
-----------------------------14--17----------|
--16-17-16-14----16----14-16-----------------|
--------------16----16-----------------------|
---------------------------------------------|
---------------------------------------------|


   |---------5---------|   |-3-|   |---3--|  |---3---|   
   S   S   E   E   E   E   E   S   S   S  S  E   E   E   
--16h-17p-16--------------------------------------------|
--------------17----------------------------------------|
------------------16--14--13--13h-14p-13----13----------|
-----------------------------------------16-----14--16--|
--------------------------------------------------------|
--------------------------------------------------------|


   S  S  S  S  S E.  H          
------------------------------||
------------------------------||
--------------14--------------||
--------14-16-----------------||
--14-16-----------------------||
------------------------------||




Duration Legend
---------------
W - whole
H - half
Q - quarter
E - 8th
S - 16th
T - 32nd
X - 64th
. - note dotted
|-n-|  - n-tuplets


Tablature Legend
----------------
L - tied note
x - dead note
g - grace note
(n) - ghost note
> - accentuded note
NH - natural harmonic
AH - artificial harmonic
TH - tapped harmonic
SH - semi harmonic
PH - pitch harmonic
h - hammer on
p - pull off
b - bend
br - bendRelease
pb - preBend
pbr - preBendRelease
brb - bendReleaseBend
n/ - tremolo bar dip
n - tremolo bar dive
-/n - tremolo bar Release up
/n - tremolo bar inverted dip
/n - tremolo bar return
-n - tremolo bar Release down
S - shift slide
s - legato slide
/ -  slide into from below or out of upwards
 -  slide into from above or out of downwards
~ - vibrato
W - wide vibrato
tr - trill
TP - tremolo picking
T - tapping
S - slap
P - pop
< - fade in
^ - brush up
v - brush down

___________________________________________________________________
Colaboração: Mauricio J.Frigo - frigo.r@terra.com.br 

><> Supergospel.com.br - O portal da música gospel

Também para esta música: Cifra

 RECURSOS    Corrigir música | Versão para impressão | Indicar a um amigo | Compre este CD
Copyright - 2001 - 2018 Supergospel. Todos os direitos reservados.