Twitter do SuperGospel Facebook do SuperGospel

Matérias em destaque



Simples (Tablatura de guitarra / violão)
Oficina G3


Solo:



     W                   S  S S S  S S S  S S  S S S  S S S  S  
D||-------------------|----------------------------------------|
A||-------------------|--3--3-3-3--3-3-3--3-6--6-6-6--6-6-6--6-|
F||-------------------|--5b-----5b-----5b---8b-----8b-----8b---|
C||-------------------|----------------------------------------|
G||-------------------|----------------------------------------|
D||-------------------|----------------------------------------|


   S  S S  S  S S  S  S  H            E   S  S  S  S  E    E   E  E  S S  
-----------------------------------|-----15------------------------------|
---8--8-8--8--8-8--8--8-15b--------|-------------------------------------|
--10b-----10b-----10b--------------|--------17-15-17-15b------15-----x-x-|
-----------------------------------|----------------------17---------x-x-|
-----------------------------------|-------------------------------------|
-----------------------------------|-------------------------------------|


   E   S  S  Q    S  S  S  S  S  E  S  
--------------------18----------------|
--15-------------------17b------------|
--15-------------------------15-------|
------17-15-17------------------14----|
--------------------------------------|
--------------------------------------|


    NH   NH   NH   NH   NH         NH        NH      NH   NH   NH   NH        NH
    T    T    T    T    T  T  T    T T  T    T  T    T    T    T    T T  T    T 
--------------------------------------------------------------------------------
--------------------------------------------------------------------------------
-------------------------------------3h-5p-<>3h-5p-<>3h-<>5p-<>3h-<>5-----------
--<>3h-<>5p-<>3h-<>5p-<>3h-5p-3h-<>5----------------------------------3h-5p-<>3h
--------------------------------------------------------------------------------
--------------------------------------------------------------------------------


    NH   NH   NH         NH   NH   NH                     
    T    T    T  T  T    T    T    T Q     S S S E  S E   
---------------------------------------------------------|
---------------------------------------------------------|
-------------------------------------5b----L-5---5--3----|
--<>3h-<>5p-<>3h-5p-3h-<>5p-<>3h-<>5------------------5--|
---------------------------------------------------------|
---------------------------------------------------------|


      |-3-|    |-3-|       |--3--|      |--3--|  
  E   S S S E  S S S  E    S  S  S  E   S  S  S  
------3-----6--3----------15-------18--15-------|
--6b----6-3------6-3-18b-----18-15--------18-15-|
------------------------------------------------|
------------------------------------------------|
------------------------------------------------|
------------------------------------------------|


   T   T   T  T  T   T   T  T  T   T   T  T  T   T   T  T  T   T   T  T   Q     
---------------------------------------------------------------------18b--L----1
--15h-18p-15----15h-18p-15----15h-18p-15----15h-18p-15----15h-18p-15------------
-------------17------------17------------17------------17-----------------------
--------------------------------------------------------------------------------
--------------------------------------------------------------------------------
--------------------------------------------------------------------------------


   W                   
---------------------||
--18b----------------||
---------------------||
---------------------||
---------------------||
---------------------||




Duration Legend
---------------
W - whole
H - half
Q - quarter
E - 8th
S - 16th
T - 32nd
X - 64th
. - note dotted
|-n-|  - n-tuplets


Tablature Legend
----------------
L - tied note
x - dead note
g - grace note
(n) - ghost note
> - accentuded note
NH - natural harmonic
AH - artificial harmonic
TH - tapped harmonic
SH - semi harmonic
PH - pitch harmonic
h - hammer on
p - pull off
b - bend
br - bendRelease
pb - preBend
pbr - preBendRelease
brb - bendReleaseBend
n/ - tremolo bar dip
n - tremolo bar dive
-/n - tremolo bar Release up
/n - tremolo bar inverted dip
/n - tremolo bar return
-n - tremolo bar Release down
S - shift slide
s - legato slide
/ -  slide into from below or out of upwards
 -  slide into from above or out of downwards
~ - vibrato
W - wide vibrato
tr - trill
TP - tremolo picking
T - tapping
S - slap
P - pop
< - fade in
^ - brush up
v - brush down

___________________________________________________________________
Colaboração: Mauricio J.Frigo - frigo.r@terra.com.br 

><> Supergospel.com.br - O portal da música gospel

Também para esta música: Cifra

 RECURSOS    Corrigir música | Versão para impressão | Indicar a um amigo | Compre este CD
Copyright - 2001 - 2018 Supergospel. Todos os direitos reservados.