Twitter do SuperGospel Facebook do SuperGospel

Matérias em destaque



A Ele (Tablatura de guitarra / violão)
Oficina G3


SOLO DA INTRO
E-------------------------------------------------------------------|
B-------------------------------------------------------------------|
G------------10-8---------10-8--------------------10-8--------------|
D-5/7-9-10------8-8h10-------8-8h10-5/7-9-10------8-8h10------------|
A-------------------------------------------------------------------|
E-------------------------------------------------------------------|

E-------------------------------------------------------------------|
B-------------------------------------------------------------------|
G-------------------------------------------------------------------|
D-10-8-6p6—10-8-10-8-7p7~~~-----------------------------------------|
A-------------------------------------------------------------------|
E-------------------------------------------------------------------|

INTRO F (C# D# F) 4x

Fm                C#9         G#9
Se eu pudesse explicar ao mundo
    Bb9     C#9         F
O que é andar contigo, Oh Deus!
C#9             Bb9      A    C#9  Cm   
Minhas palavras não poderiam expressar

       F#  
O Teu poder
Bbm        D#9      Cm
O Teu imutável amor
               F#          Bbm             D#9  F
Falar de Quem foi, que é e sempre será Deus!

           C#9   D#9    F
Cantem os povos ao Senhor
  C#9  D#9    F
A Ele o louvor
        C#9    D#9      F
A majestade ao Rei dos reis
       C#9   D#9         F    C#9   D#9    F
O verdadeiro Deus, o Eu Sou!

E-------------------------------------------------------------------|
B-------------------------------------------------------------------|
G-------------------------------------------------------------------|
D-10-8-6p6—10-8-10-8-7p7~~~-----------------------------------------|
A-------------------------------------------------------------------|
E-------------------------------------------------------------------|

Fm        C#9     G#9
Como poderia me calar
Bb9         C#9    F
Depois de O conhecer meu Deus
  C#9           Bb9         A  C#9 Cm
Será que alguém poderá entende|--e|--er

         F#
O Teu querer
  Bbm       D#9         Cm
A Tua graça e Teu favor
           F#           Bbm             D#9
Aquele que foi, que é e sempre será Deus!

           C#9   D#9    F
Cantem os povos ao Senhor
  C#9  D#9    F
A Ele o louvor
        C#9    D#9      F
A majestade ao Rei dos reis
       C#9   D#9         F    
O verdadeiro Deus, o Eu Sou!

Base Solo: C#9 D#9 F    Bbm  C#9 Fm D#9 Bbm  C#9 Fm F# Fm

SOLO 02:37
E-----------------------------------------------------------------------------------------------|
B----------------6-6-8-9-8-6---6h8p6-6-------------------6-6-8-9-8-9---9٨-11--------------------|  
G-4/6-6-8---------------------8-----------8-6-5/6~~-6-8-----------------------------------------|  
D-----------------------------------------------------------------------------------------------|
A-----------------------------------------------------------------------------------------------| 

E-------------------------------------------------------------------------------9p11-11/13~~~~--|
B--------------------------------------------------------------------9p11p12--------------------| 
G------------------------------------9p10p12-----------9p10p12----------------------------------| 
D-------------------------8p10p11------------8p10p11--------------------------------------------|
A--------------8p9p11---------------------------------------------------------------------------|
E---8p9p11--------------------------------------------------------------------------------------|
        Cm         D#9          Bb9    Fm
O Teu entendimento não pode se medir
       Cm            D#9              Bb9
Desde o princípio anuncia o que ha de vir
        Cm          D#9        Bb9       Fm
Vira o dia em que a verdade se revelara
       Cm           D#9          C#9
E Tua gloria este mundo contemplará

interlúdio com teclado: Fm G# Cm Bb9

Tradução da tablatura do solo

/ Slide crescente
^ Bende
~~ Trêmulo
p Tocar bem rápido

___________________________________________________________________
Colaboração: johnata do santos - johnnatas17@hotmail.com 

><> Supergospel.com.br - O portal da música gospel

Também para esta música: Cifra

 RECURSOS    Corrigir música | Versão para impressão | Indicar a um amigo | Compre este CD
Copyright - 2001 - 2018 Supergospel. Todos os direitos reservados.