Twitter do SuperGospel Facebook do SuperGospel

Matérias em destaque



Feliz de Vez (Tablatura de guitarra / violão)
Fernanda Brum


Parte 1

e|--15-14-12----------|-----------12/14--12---|
B|------------12-13~--|--12-13-15-----------12|
G|--------------------|-----------------------|
D|--------------------|-----------------------|
A|--------------------|-----------------------|
E|--------------------|-----------------------|

e|-------------------------12-14-15~~|
B|----------------12-13-15-----------|
G|-------11-12-14--------------------|
D|-12-14-----------------------------|
A|-----------------------------------|
E|-----------------------------------|

Parte 2 ( Final )

e|--15-14-12----------|-----------12/14--12----|
B|------------12-13~--|--12-13-15-----------12-|
G|--------------------|------------------------|
D|--------------------|------------------------|
A|--------------------|------------------------|
E|--------------------|------------------------|

e|--------------------------|
B|--------12-10-12-14-15~~--|
G|--12-14-------------------|
D|--------------------------|
A|--------------------------|
E|--------------------------|

___________________________________________________________________
Colaboração: Luiz Gabriel de Lima do Carmo - galeto_rpg@hotmail.com 

><> Supergospel.com.br - O portal da música gospel

Também para esta música: Cifra

 RECURSOS    Corrigir música | Versão para impressão | Indicar a um amigo
Copyright - 2001 - 2018 Supergospel. Todos os direitos reservados.