Twitter do SuperGospel Facebook do SuperGospel

Matérias em destaque



Continuar (Tablatura de guitarra / violão)
Oficina G3


Solo:

      E   T  T  T  T  T  T  T  T  T  T  T  T  T  T  T  T  T  T  T  T  
C ||-----20-19-17----19-17-------17----------------------------------|
G ||--------------20-------20-19----20-19-17-20-19-17----19-17-------|
D#||--------------------------------------------------19-------19-17-|
A#||-----------------------------------------------------------------|
F ||-----------------------------------------------------------------|
C ||-----------------------------------------------------------------|


   H           E    E      Q     E  E    S  S  S  S     Q     E   Q      E   
-----------------------|----------------------------|------------17b----20--|
--17b--------(17)b--L--|--15----17--L~--15-17-19-15-|--17----15-------------|
-----------------------|----------------------------|-----------------------|
-----------------------|----------------------------|-----------------------|
-----------------------|----------------------------|-----------------------|
-----------------------|----------------------------|-----------------------|


   T  T  S  S  S  S  S  T  T  S  S  S  S  S  
--19-20-19----19----------------------------|
-----------22----20-------------------------|
--------------------19-16-17-16----16-------|
--------------------------------19----17-19-|
--------------------------------------------|
--------------------------------------------|


   Q.      T  T  T  T  T  T  T  T  T  T  T  T     Q      E    Q    E   
----------------------15-19-15----------15-19-|--22b----22b--22----L--|
-------------------17----------17----17-------|-----------------------|
----------------16----------------16----------|-----------------------|
-------------17-------------------------------|-----------------------|
--19------19----------------------------------|-----------------------|
----------------------------------------------|-----------------------|


   Q      S  S  S  S  S  S  S  S  
---------19-20-22-20-19----------|
--22b-------------------22-20-19-|
---------------------------------|
---------------------------------|
---------------------------------|
---------------------------------|


                                                   |--3--|  |--3--|  |--3--|  |-
   T  T  T  T  T  T  T  T  T  T  T  T  T  T  T  T  T  T  T  T  T  T  T  T  T  T 
--22-20-19----------22-20-19----------------------------------------------------
-----------22-20-19----------22-20-19----------------------------------19-20-22-
--------------------------------------19-17-16----------------16-17-19----------
-----------------------------------------------19-17-16-17-19-------------------
--------------------------------------------------------------------------------
--------------------------------------------------------------------------------


   Q      E  Q.       
--20b~--------------||
--------------------||
--------------------||
--------------------||
--------------------||
--------------------||




Duration Legend
---------------
W - whole
H - half
Q - quarter
E - 8th
S - 16th
T - 32nd
X - 64th
. - note dotted
|-n-|  - n-tuplets


Tablature Legend
----------------
L - tied note
x - dead note
g - grace note
(n) - ghost note
> - accentuded note
NH - natural harmonic
AH - artificial harmonic
TH - tapped harmonic
SH - semi harmonic
PH - pitch harmonic
h - hammer on
p - pull off
b - bend
br - bendRelease
pb - preBend
pbr - preBendRelease
brb - bendReleaseBend
n/ - tremolo bar dip
n - tremolo bar dive
-/n - tremolo bar Release up
/n - tremolo bar inverted dip
/n - tremolo bar return
-n - tremolo bar Release down
S - shift slide
s - legato slide
/ -  slide into from below or out of upwards
 -  slide into from above or out of downwards
~ - vibrato
W - wide vibrato
tr - trill
TP - tremolo picking
T - tapping
S - slap
P - pop
< - fade in
^ - brush up
v - brush down

___________________________________________________________________
Colaboração: Mauricio J.Frigo - frigo.r@terra.com.br 

><> Supergospel.com.br - O portal da música gospel

Também para esta música: Cifra

 RECURSOS    Corrigir música | Versão para impressão | Indicar a um amigo | Compre este CD
Copyright - 2001 - 2018 Supergospel. Todos os direitos reservados.