Twitter do SuperGospel Facebook do SuperGospel

Matérias em destaque



Adorai-adonai (Tablatura de guitarra / violão)
Fernanda Brum


INTRODUÇÃO:
E----------------------------3-------------------------------------------
B-----1-0-----3-1-----5-3---3-3/5------5-3------3-1-------1-0------------
G----2------0-------0----------------0--------0---------2----------2-0-2-
R------------------------------------------------------------------------
A---0-------------0-------2--------3--------2---------0------------------
E---------0------------------------------------------------------0-------

SOLO

E---7/8-7--8/10-8--10/12-10--12/14-15--14/15-14--15/17-15----
B------------------------------------------------------------
G------------------------------------------------------------
D------------------------------------------------------------
A------------------------------------------------------------
E------------------------------------------------------------

E---------------------------------------------------------------------
B---15---------15/17-17~~1715-----15-------15--17BEND--17--15--------
G------16--12-------------------17----14-16---------------------16--14-
D---------------------------------------------------------------------
A---------------------------------------------------------------------
E---------------------------------------------------------------------

E---------------------------------------------------------------
B----------------------13-15-17-15------------------------------
G------------12-14-15-------------------------------------------
D---12-14-15----------------------------------------------------
A---------------------------------------------------------------
E---------------------------------------------------------------

___________________________________________________________________
Colaboração: Raulivan Rodrigo - raulivanrodrigo@yahoo.com.br 

><> Supergospel.com.br - O portal da música gospel

Também para esta música: Cifra

 RECURSOS    Corrigir música | Versão para impressão | Indicar a um amigo | Compre este CD
Copyright - 2001 - 2018 Supergospel. Todos os direitos reservados.