Twitter do SuperGospel Facebook do SuperGospel

Matérias em destaque



Dá-me Filhos (Tablatura de guitarra / violão)
Fernanda Brum


intro: Fm  C#  Fm  Eb  C#
 
 
E|------------------------|--------------------------| 
B|-6-8-9-8-6h8p6--6-8-8/9-|-6-8-9-8-6h8p6----6/8-6~~-| 
G|---------------8--------|---------------8-8--------| 
D|------------------------|--------------------------| 
A|------------------------|--------------------------| 
E|------------------------|--------------------------| 
 
Solo:  
                                                T          T  
E|--------------------------|---------------6h8-10-8p6-6h8-10-8p6-6h8-| 
B|-6-8-8/9-8-6h8p6--6-8-8/9~|-6-8-8/9-8-6-----------------------------| 
G|-----------------8--------|-------------8---------------------------| 
D|--------------------------|-----------------------------------------| 
A|--------------------------|-----------------------------------------| 
E|--------------------------|-----------------------------------------| 
   T  
E|-10-8p6--------4--|    
B|-------8p6-----4--| 
G|----------8~------| 
D|------------------| 
A|------------------| 
E|------------------| 
 
 
Atenção: Eu não sei se tem esse solo no CD, eu tirei do 
DVD Canta Zona Sul. Se não tiver esse solo no CD, façam ele mesmo 
assim que fica muito legal.

___________________________________________________________________
Colaboração: Thiago moreira de almeida panzin  - thiagopansini@hotmail.com 
    Correção: Filipe da Silva - filipao_assis@hotmail.com

><> Supergospel.com.br - O portal da música gospel

Também para esta música: Cifra

 RECURSOS    Corrigir música | Versão para impressão | Indicar a um amigo | Compre este CD
Copyright - 2001 - 2018 Supergospel. Todos os direitos reservados.